  0
SECTION
  2
HEADER
  9
$ACADVER
  1
AC1015
  9
$ACADMAINTVER
 70
     6
  9
$DWGCODEPAGE
  3
ANSI_1252
  9
$INSBASE
 10
0.0
 20
0.0
 30
0.0
  9
$EXTMIN
 10
-436.8936502618
 20
-140.351783820446
 30
0.0
  9
$EXTMAX
 10
381.7220193285952
 20
437.101725325084
 30
0.0
  9
$LIMMIN
 10
0.0
 20
0.0
  9
$LIMMAX
 10
210.0
 20
297.0
  9
$ORTHOMODE
 70
     1
  9
$REGENMODE
 70
     1
  9
$FILLMODE
 70
     1
  9
$QTEXTMODE
 70
     0
  9
$MIRRTEXT
 70
     1
  9
$LTSCALE
 40
1.0
  9
$ATTMODE
 70
     1
  9
$TEXTSIZE
 40
2.8
  9
$TRACEWID
 40
1.0
  9
$TEXTSTYLE
  7
Standard
  9
$CLAYER
  8
0
  9
$CELTYPE
  6
ByLayer
  9
$CECOLOR
 62
   256
  9
$CELTSCALE
 40
1.0
  9
$DISPSILH
 70
     0
  9
$DIMSCALE
 40
1.0
  9
$DIMASZ
 40
3.2
  9
$DIMEXO
 40
0.1
  9
$DIMDLI
 40
3.75
  9
$DIMRND
 40
0.0
  9
$DIMDLE
 40
0.0
  9
$DIMEXE
 40
1.0
  9
$DIMTP
 40
0.0
  9
$DIMTM
 40
0.0
  9
$DIMTXT
 40
3.2
  9
$DIMCEN
 40
2.5
  9
$DIMTSZ
 40
0.0
  9
$DIMTOL
 70
     0
  9
$DIMLIM
 70
     0
  9
$DIMTIH
 70
     1
  9
$DIMTOH
 70
     1
  9
$DIMSE1
 70
     0
  9
$DIMSE2
 70
     0
  9
$DIMTAD
 70
     1
  9
$DIMZIN
 70
     0
  9
$DIMBLK
  1

  9
$DIMASO
 70
     1
  9
$DIMSHO
 70
     1
  9
$DIMPOST
  1

  9
$DIMAPOST
  1

  9
$DIMALT
 70
     0
  9
$DIMALTD
 70
     3
  9
$DIMALTF
 40
0.0393700787
  9
$DIMLFAC
 40
1.0
  9
$DIMTOFL
 70
     1
  9
$DIMTVP
 40
0.0
  9
$DIMTIX
 70
     0
  9
$DIMSOXD
 70
     0
  9
$DIMSAH
 70
     0
  9
$DIMBLK1
  1

  9
$DIMBLK2
  1

  9
$DIMSTYLE
  2
ISO-25
  9
$DIMCLRD
 70
     0
  9
$DIMCLRE
 70
     0
  9
$DIMCLRT
 70
     0
  9
$DIMTFAC
 40
1.0
  9
$DIMGAP
 40
2.0
  9
$DIMJUST
 70
     0
  9
$DIMSD1
 70
     0
  9
$DIMSD2
 70
     0
  9
$DIMTOLJ
 70
     0
  9
$DIMTZIN
 70
     0
  9
$DIMALTZ
 70
     0
  9
$DIMALTTZ
 70
     0
  9
$DIMUPT
 70
     0
  9
$DIMDEC
 70
     2
  9
$DIMTDEC
 70
     2
  9
$DIMALTU
 70
     2
  9
$DIMALTTD
 70
     3
  9
$DIMTXSTY
  7
Standard
  9
$DIMAUNIT
 70
     0
  9
$DIMADEC
 70
     2
  9
$DIMALTRND
 40
0.0
  9
$DIMAZIN
 70
     0
  9
$DIMDSEP
 70
    44
  9
$DIMATFIT
 70
     3
  9
$DIMFRAC
 70
     0
  9
$DIMLDRBLK
  1

  9
$DIMLUNIT
 70
     2
  9
$DIMLWD
 70
    -2
  9
$DIMLWE
 70
    -2
  9
$DIMTMOVE
 70
     0
  9
$LUNITS
 70
     2
  9
$LUPREC
 70
     2
  9
$SKETCHINC
 40
1.0
  9
$FILLETRAD
 40
10.0
  9
$AUNITS
 70
     0
  9
$AUPREC
 70
     2
  9
$MENU
  1
.
  9
$ELEVATION
 40
0.0
  9
$PELEVATION
 40
0.0
  9
$THICKNESS
 40
0.0
  9
$LIMCHECK
 70
     0
  9
$CHAMFERA
 40
0.0
  9
$CHAMFERB
 40
0.0
  9
$CHAMFERC
 40
0.0
  9
$CHAMFERD
 40
0.0
  9
$SKPOLY
 70
     0
  9
$TDCREATE
 40
2457142.5059125
  9
$TDUCREATE
 40
2457142.422579166
  9
$TDUPDATE
 40
2457283.495127384
  9
$TDUUPDATE
 40
2457283.411794051
  9
$TDINDWG
 40
0.0109136227
  9
$TDUSRTIMER
 40
2457283.411377963
  9
$USRTIMER
 70
     1
  9
$ANGBASE
 50
0.0
  9
$ANGDIR
 70
     0
  9
$PDMODE
 70
     0
  9
$PDSIZE
 40
-1.0
  9
$PLINEWID
 40
0.0
  9
$SPLFRAME
 70
     0
  9
$SPLINETYPE
 70
     6
  9
$SPLINESEGS
 70
     8
  9
$HANDSEED
  5
D90
  9
$SURFTAB1
 70
     6
  9
$SURFTAB2
 70
     6
  9
$SURFTYPE
 70
     6
  9
$SURFU
 70
     6
  9
$SURFV
 70
     6
  9
$UCSBASE
  2

  9
$UCSNAME
  2

  9
$UCSORG
 10
0.0
 20
0.0
 30
0.0
  9
$UCSXDIR
 10
1.0
 20
0.0
 30
0.0
  9
$UCSYDIR
 10
0.0
 20
1.0
 30
0.0
  9
$UCSORTHOREF
  2

  9
$UCSORTHOVIEW
 70
     0
  9
$UCSORGTOP
 10
0.0
 20
0.0
 30
0.0
  9
$UCSORGBOTTOM
 10
0.0
 20
0.0
 30
0.0
  9
$UCSORGLEFT
 10
0.0
 20
0.0
 30
0.0
  9
$UCSORGRIGHT
 10
0.0
 20
0.0
 30
0.0
  9
$UCSORGFRONT
 10
0.0
 20
0.0
 30
0.0
  9
$UCSORGBACK
 10
0.0
 20
0.0
 30
0.0
  9
$PUCSBASE
  2

  9
$PUCSNAME
  2

  9
$PUCSORG
 10
0.0
 20
0.0
 30
0.0
  9
$PUCSXDIR
 10
1.0
 20
0.0
 30
0.0
  9
$PUCSYDIR
 10
0.0
 20
1.0
 30
0.0
  9
$PUCSORTHOREF
  2

  9
$PUCSORTHOVIEW
 70
     0
  9
$PUCSORGTOP
 10
0.0
 20
0.0
 30
0.0
  9
$PUCSORGBOTTOM
 10
0.0
 20
0.0
 30
0.0
  9
$PUCSORGLEFT
 10
0.0
 20
0.0
 30
0.0
  9
$PUCSORGRIGHT
 10
0.0
 20
0.0
 30
0.0
  9
$PUCSORGFRONT
 10
0.0
 20
0.0
 30
0.0
  9
$PUCSORGBACK
 10
0.0
 20
0.0
 30
0.0
  9
$USERI1
 70
     0
  9
$USERI2
 70
     0
  9
$USERI3
 70
     0
  9
$USERI4
 70
     0
  9
$USERI5
 70
     0
  9
$USERR1
 40
0.0
  9
$USERR2
 40
0.0
  9
$USERR3
 40
0.0
  9
$USERR4
 40
0.0
  9
$USERR5
 40
0.0
  9
$WORLDVIEW
 70
     1
  9
$SHADEDGE
 70
     3
  9
$SHADEDIF
 70
    70
  9
$TILEMODE
 70
     1
  9
$MAXACTVP
 70
    64
  9
$PINSBASE
 10
0.0
 20
0.0
 30
0.0
  9
$PLIMCHECK
 70
     0
  9
$PEXTMIN
 10
1.000000000000000E+20
 20
1.000000000000000E+20
 30
1.000000000000000E+20
  9
$PEXTMAX
 10
-1.000000000000000E+20
 20
-1.000000000000000E+20
 30
-1.000000000000000E+20
  9
$PLIMMIN
 10
0.0
 20
0.0
  9
$PLIMMAX
 10
0.0
 20
0.0
  9
$UNITMODE
 70
     0
  9
$VISRETAIN
 70
     1
  9
$PLINEGEN
 70
     0
  9
$PSLTSCALE
 70
     1
  9
$TREEDEPTH
 70
  3020
  9
$CMLSTYLE
  2
Standard
  9
$CMLJUST
 70
     0
  9
$CMLSCALE
 40
20.0
  9
$PROXYGRAPHICS
 70
     1
  9
$MEASUREMENT
 70
     1
  9
$CELWEIGHT
370
    -1
  9
$ENDCAPS
280
     0
  9
$JOINSTYLE
280
     0
  9
$LWDISPLAY
290
     1
  9
$INSUNITS
 70
     4
  9
$HYPERLINKBASE
  1

  9
$STYLESHEET
  1

  9
$XEDIT
290
     1
  9
$CEPSNTYPE
380
     0
  9
$PSTYLEMODE
290
     1
  9
$FINGERPRINTGUID
  2
{7AB0ACAB-246C-461C-B498-233A806CD5E5}
  9
$VERSIONGUID
  2
{FAEB1C32-E019-11D5-929B-00C0DF256EC4}
  9
$EXTNAMES
290
     1
  9
$PSVPSCALE
 40
0.0
  9
$OLESTARTUP
290
     0
  0
ENDSEC
  0
SECTION
  2
CLASSES
  0
CLASS
  1
ACDBDICTIONARYWDFLT
  2
AcDbDictionaryWithDefault
  3
ObjectDBX Classes
 90
        0
280
     0
281
     0
  0
CLASS
  1
VISUALSTYLE
  2
AcDbVisualStyle
  3
ObjectDBX Classes
 90
     4095
280
     0
281
     0
  0
CLASS
  1
MATERIAL
  2
AcDbMaterial
  3
ObjectDBX Classes
 90
     1153
280
     0
281
     0
  0
CLASS
  1
SCALE
  2
AcDbScale
  3
ObjectDBX Classes
 90
     1153
280
     0
281
     0
  0
CLASS
  1
TABLESTYLE
  2
AcDbTableStyle
  3
ObjectDBX Classes
 90
     4095
280
     0
281
     0
  0
CLASS
  1
MLEADERSTYLE
  2
AcDbMLeaderStyle
  3
ACDB_MLEADERSTYLE_CLASS
 90
     4095
280
     0
281
     0
  0
CLASS
  1
SUN
  2
AcDbSun
  3
SCENEOE
 90
     1153
280
     0
281
     0
  0
CLASS
  1
ACDBPLACEHOLDER
  2
AcDbPlaceHolder
  3
ObjectDBX Classes
 90
        0
280
     0
281
     0
  0
CLASS
  1
LAYOUT
  2
AcDbLayout
  3
ObjectDBX Classes
 90
        0
280
     0
281
     0
  0
CLASS
  1
RASTERVARIABLES
  2
AcDbRasterVariables
  3
ISM
 90
        0
280
     0
281
     0
  0
CLASS
  1
DICTIONARYVAR
  2
AcDbDictionaryVar
  3
ObjectDBX Classes
 90
        0
280
     0
281
     0
  0
CLASS
  1
DIMASSOC
  2
AcDbDimAssoc
  3
"AcDbDimAssoc|Product Desc:     AcDim ARX App For Dimension|Company:          Autodesk, Inc.|WEB Address:      www.autodesk.com"
 90
        0
280
     0
281
     0
  0
ENDSEC
  0
SECTION
  2
TABLES
  0
TABLE
  2
VPORT
  5
8
330
0
100
AcDbSymbolTable
 70
     1
  0
VPORT
  5
29
330
8
100
AcDbSymbolTableRecord
100
AcDbViewportTableRecord
  2
*Active
 70
     0
 10
0.0
 20
0.0
 11
1.0
 21
1.0
 12
-27.58581546660241
 22
148.374970752319
 13
0.0
 23
0.0
 14
10.0
 24
10.0
 15
10.0
 25
10.0
 16
0.0
 26
0.0
 36
1.0
 17
0.0
 27
0.0
 37
0.0
 40
589.0025793284406
 41
2.121333333333333
 42
50.0
 43
0.0
 44
0.0
 50
0.0
 51
0.0
 71
    16
 72
  2000
 73
     1
 74
     3
 75
     0
 76
     0
 77
     0
 78
     0
281
     0
 65
     1
110
0.0
120
0.0
130
0.0
111
1.0
121
0.0
131
0.0
112
0.0
122
1.0
132
0.0
 79
     0
146
0.0
  0
ENDTAB
  0
TABLE
  2
LTYPE
  5
5
330
0
100
AcDbSymbolTable
 70
     6
  0
LTYPE
  5
14
330
5
100
AcDbSymbolTableRecord
100
AcDbLinetypeTableRecord
  2
ByBlock
 70
     0
  3

 72
    65
 73
     0
 40
0.0
  0
LTYPE
  5
15
330
5
100
AcDbSymbolTableRecord
100
AcDbLinetypeTableRecord
  2
ByLayer
 70
     0
  3

 72
    65
 73
     0
 40
0.0
  0
LTYPE
  5
16
330
5
100
AcDbSymbolTableRecord
100
AcDbLinetypeTableRecord
  2
Continuous
 70
     0
  3
Solid line
 72
    65
 73
     0
 40
0.0
  0
LTYPE
  5
6E
330
5
100
AcDbSymbolTableRecord
100
AcDbLinetypeTableRecord
  2
HIDDEN
 70
     0
  3
Hidden __ __ __ __ __ __ __ __ __ __ __ __ __ __
 72
    65
 73
     2
 40
1.905
 49
1.27
 74
     0
 49
-0.635
 74
     0
  0
LTYPE
  5
6F
330
5
100
AcDbSymbolTableRecord
100
AcDbLinetypeTableRecord
  2
PHANTOM
 70
     0
  3
Phantom ______  __  __  ______  __  __  ______
 72
    65
 73
     6
 40
12.7
 49
6.35
 74
     0
 49
-1.27
 74
     0
 49
1.27
 74
     0
 49
-1.27
 74
     0
 49
1.27
 74
     0
 49
-1.27
 74
     0
  0
LTYPE
  5
70
330
5
100
AcDbSymbolTableRecord
100
AcDbLinetypeTableRecord
  2
CENTER
 70
     0
  3
Center ____ _ ____ _ ____ _ ____ _ ____ _ ____
 72
    65
 73
     4
 40
10.16
 49
6.35
 74
     0
 49
-1.27
 74
     0
 49
1.27
 74
     0
 49
-1.27
 74
     0
  0
LTYPE
  5
71
330
5
100
AcDbSymbolTableRecord
100
AcDbLinetypeTableRecord
  2
CENTERX2
 70
     0
  3
Center (2x) ________  __  ________  __  _____
 72
    65
 73
     4
 40
20.32
 49
12.7
 74
     0
 49
-2.54
 74
     0
 49
2.54
 74
     0
 49
-2.54
 74
     0
  0
LTYPE
  5
72
330
5
100
AcDbSymbolTableRecord
100
AcDbLinetypeTableRecord
  2
DOT2
 70
     0
  3
Dot (.5x) ........................................
 72
    65
 73
     2
 40
0.635
 49
0.0
 74
     0
 49
-0.635
 74
     0
  0
ENDTAB
  0
TABLE
  2
LAYER
  5
2
330
0
100
AcDbSymbolTable
 70
     5
  0
LAYER
  5
10
330
2
100
AcDbSymbolTableRecord
100
AcDbLayerTableRecord
  2
0
 70
     0
 62
     7
  6
Continuous
370
    -3
390
F
  0
LAYER
  5
73
330
2
100
AcDbSymbolTableRecord
100
AcDbLayerTableRecord
  2
QUOTE
 70
     0
 62
     3
  6
Continuous
370
    -3
390
F
  0
LAYER
  5
74
330
2
100
AcDbSymbolTableRecord
100
AcDbLayerTableRecord
  2
ASSI
 70
     0
 62
     1
  6
CENTERX2
370
    -3
390
F
  0
LAYER
  5
75
330
2
100
AcDbSymbolTableRecord
100
AcDbLayerTableRecord
  2
TRATTEGGIO
 70
     0
 62
     4
  6
Continuous
370
    -3
390
F
  0
LAYER
  5
969
330
2
100
AcDbSymbolTableRecord
100
AcDbLayerTableRecord
  2
Defpoints
 70
     0
 62
     7
  6
Continuous
290
     0
370
    -3
390
F
  0
ENDTAB
  0
TABLE
  2
STYLE
  5
3
330
0
100
AcDbSymbolTable
 70
     3
  0
STYLE
  5
11
330
3
100
AcDbSymbolTableRecord
100
AcDbTextStyleTableRecord
  2
Standard
 70
     0
 40
0.0
 41
1.0
 50
0.0
 71
     0
 42
2.8
  3
txt
  4

  0
STYLE
  5
76
330
3
100
AcDbSymbolTableRecord
100
AcDbTextStyleTableRecord
  2
SLDTEXTSTYLE0
 70
     0
 40
0.0
 41
0.75
 50
0.0
 71
     0
 42
2.8
  3
TXT
  4

  0
STYLE
  5
B2
330
3
100
AcDbSymbolTableRecord
100
AcDbTextStyleTableRecord
  2
SLDTEXTSTYLE1
 70
     0
 40
0.0
 41
0.6944444444
 50
0.0
 71
     0
 42
2.8
  3
TXT
  4

  0
ENDTAB
  0
TABLE
  2
VIEW
  5
6
330
0
100
AcDbSymbolTable
 70
     0
  0
ENDTAB
  0
TABLE
  2
UCS
  5
7
330
0
100
AcDbSymbolTable
 70
     0
  0
ENDTAB
  0
TABLE
  2
APPID
  5
9
330
0
100
AcDbSymbolTable
 70
     2
  0
APPID
  5
12
330
9
100
AcDbSymbolTableRecord
100
AcDbRegAppTableRecord
  2
ACAD
 70
     0
  0
APPID
  5
968
330
9
100
AcDbSymbolTableRecord
100
AcDbRegAppTableRecord
  2
ACAD_DSTYLE_DIMRADIAL_EXTENSION
 70
     0
  0
ENDTAB
  0
TABLE
  2
DIMSTYLE
  5
A
330
0
100
AcDbSymbolTable
 70
     1
100
AcDbDimStyleTable
  0
DIMSTYLE
105
27
330
A
100
AcDbSymbolTableRecord
100
AcDbDimStyleTableRecord
  2
ISO-25
 70
     0
 41
2.5
 42
0.625
 43
3.75
 44
1.25
 73
     0
 74
     0
 77
     1
 78
     8
140
2.5
141
2.5
143
0.0393700787
147
0.625
171
     3
172
     1
178
     0
271
     2
272
     2
274
     3
278
    44
283
     0
284
     8
340
11
  0
ENDTAB
  0
TABLE
  2
BLOCK_RECORD
  5
1
330
0
100
AcDbSymbolTable
 70
    12
  0
BLOCK_RECORD
  5
1F
330
1
100
AcDbSymbolTableRecord
100
AcDbBlockTableRecord
  2
*Model_Space
340
22
  0
BLOCK_RECORD
  5
1B
330
1
100
AcDbSymbolTableRecord
100
AcDbBlockTableRecord
  2
*Paper_Space
340
1E
  0
BLOCK_RECORD
  5
23
330
1
100
AcDbSymbolTableRecord
100
AcDbBlockTableRecord
  2
*Paper_Space0
340
26
  0
BLOCK_RECORD
  5
78
330
1
100
AcDbSymbolTableRecord
100
AcDbBlockTableRecord
  2
SW_NOTE_0
340
0
  0
BLOCK_RECORD
  5
7E
330
1
100
AcDbSymbolTableRecord
100
AcDbBlockTableRecord
  2
SW_NOTE_1
340
0
  0
BLOCK_RECORD
  5
88
330
1
100
AcDbSymbolTableRecord
100
AcDbBlockTableRecord
  2
SW_NOTE_2
340
0
  0
BLOCK_RECORD
  5
93
330
1
100
AcDbSymbolTableRecord
100
AcDbBlockTableRecord
  2
SW_NOTE_3
340
0
  0
BLOCK_RECORD
  5
9E
330
1
100
AcDbSymbolTableRecord
100
AcDbBlockTableRecord
  2
SW_NOTE_4
340
0
  0
BLOCK_RECORD
  5
A9
330
1
100
AcDbSymbolTableRecord
100
AcDbBlockTableRecord
  2
SW_NOTE_5
340
0
  0
BLOCK_RECORD
  5
B5
330
1
100
AcDbSymbolTableRecord
100
AcDbBlockTableRecord
  2
SW_NOTE_6
340
0
  0
BLOCK_RECORD
  5
C0
330
1
100
AcDbSymbolTableRecord
100
AcDbBlockTableRecord
  2
SW_NOTE_7
340
0
  0
BLOCK_RECORD
  5
C9
330
1
100
AcDbSymbolTableRecord
100
AcDbBlockTableRecord
  2
SW_NOTE_8
340
0
  0
ENDTAB
  0
ENDSEC
  0
SECTION
  2
BLOCKS
  0
BLOCK
  5
20
330
1F
100
AcDbEntity
  8
0
100
AcDbBlockBegin
  2
*Model_Space
 70
     0
 10
0.0
 20
0.0
 30
0.0
  3
*Model_Space
  1
*Model_Space
  0
ENDBLK
  5
21
330
1F
100
AcDbEntity
  8
0
100
AcDbBlockEnd
  0
BLOCK
  5
1C
330
1B
100
AcDbEntity
 67
     1
  8
0
100
AcDbBlockBegin
  2
*Paper_Space
 70
     0
 10
0.0
 20
0.0
 30
0.0
  3
*Paper_Space
  1
*Paper_Space
  0
ENDBLK
  5
1D
330
1B
100
AcDbEntity
 67
     1
  8
0
100
AcDbBlockEnd
  0
BLOCK
  5
24
330
23
100
AcDbEntity
  8
0
100
AcDbBlockBegin
  2
*Paper_Space0
 70
     0
 10
0.0
 20
0.0
 30
0.0
  3
*Paper_Space0
  1
*Paper_Space0
  0
ENDBLK
  5
25
330
23
100
AcDbEntity
  8
0
100
AcDbBlockEnd
  0
BLOCK
  5
79
330
78
100
AcDbEntity
  8
0
100
AcDbBlockBegin
  2
SW_NOTE_0
 70
     0
 10
0.0
 20
0.0
 30
0.0
  3
SW_NOTE_0
  1
SW_NOTE_0
  0
MTEXT
  5
7B
330
78
100
AcDbEntity
  8
0
  6
Continuous
 62
     0
370
     0
100
AcDbMText
 10
0.0
 20
5.1159875922
 30
0.0
 40
3.96875
 41
0.0
 71
     1
 72
     1
  1
830E10D
  7
SLDTEXTSTYLE0
 73
     1
 44
1.0
  0
MTEXT
  5
7C
330
78
100
AcDbEntity
  8
0
  6
Continuous
 62
     0
370
     0
100
AcDbMText
 10
0.0
 20
-1.1756789416
 30
0.0
 40
3.96875
 41
0.0
 71
     1
 72
     1
  1
830E10S
  7
SLDTEXTSTYLE0
 73
     1
 44
1.0
  0
ENDBLK
  5
7A
330
78
100
AcDbEntity
  8
0
100
AcDbBlockEnd
  0
BLOCK
  5
7F
330
7E
100
AcDbEntity
  8
0
100
AcDbBlockBegin
  2
SW_NOTE_1
 70
     0
 10
0.0
 20
0.0
 30
0.0
  3
SW_NOTE_1
  1
SW_NOTE_1
  0
LINE
  5
81
330
7E
100
AcDbEntity
  8
0
  6
Continuous
 62
     0
370
     0
100
AcDbLine
 10
-0.0596261572
 20
-7.7037787189
 30
0.0
 11
-0.0596261572
 21
3.6816808147
 31
0.0
  0
LINE
  5
82
330
7E
100
AcDbEntity
  8
0
  6
Continuous
 62
     0
370
     0
100
AcDbLine
 10
-0.0596261572
 20
3.6816808147
 30
0.0
 11
18.3217181501
 21
3.6816808147
 31
0.0
  0
LINE
  5
83
330
7E
100
AcDbEntity
  8
0
  6
Continuous
 62
     0
370
     0
100
AcDbLine
 10
18.3217181501
 20
3.6816808147
 30
0.0
 11
18.3217181501
 21
-7.7037787189
 31
0.0
  0
LINE
  5
84
330
7E
100
AcDbEntity
  8
0
  6
Continuous
 62
     0
370
     0
100
AcDbLine
 10
18.3217181501
 20
-7.7037787189
 30
0.0
 11
-0.0596261572
 21
-7.7037787189
 31
0.0
  0
MTEXT
  5
85
330
7E
100
AcDbEntity
  8
0
  6
Continuous
 62
     0
370
     0
100
AcDbMText
 10
0.0
 20
3.6093896714
 30
0.0
 40
2.8
 41
0.0
 71
     1
 72
     1
  1
SP
  7
SLDTEXTSTYLE0
 73
     1
 44
1.0
  0
MTEXT
  5
86
330
7E
100
AcDbEntity
  8
0
  6
Continuous
 62
     0
370
     0
100
AcDbMText
 10
0.0
 20
-3.9906104568
 30
0.0
 40
2.8
 41
0.0
 71
     1
 72
     1
  1
8÷21.52
  7
SLDTEXTSTYLE0
 73
     1
 44
1.0
  0
ENDBLK
  5
80
330
7E
100
AcDbEntity
  8
0
100
AcDbBlockEnd
  0
BLOCK
  5
89
330
88
100
AcDbEntity
  8
0
100
AcDbBlockBegin
  2
SW_NOTE_2
 70
     0
 10
0.0
 20
0.0
 30
0.0
  3
SW_NOTE_2
  1
SW_NOTE_2
  0
LINE
  5
8B
330
88
100
AcDbEntity
  8
0
  6
Continuous
 62
     0
370
     0
100
AcDbLine
 10
-0.0223339358
 20
-11.4074824226
 30
0.0
 11
-0.0223339358
 21
3.6816808147
 31
0.0
  0
LINE
  5
8C
330
88
100
AcDbEntity
  8
0
  6
Continuous
 62
     0
370
     0
100
AcDbLine
 10
-0.0223339358
 20
3.6816808147
 30
0.0
 11
18.3590103714
 21
3.6816808147
 31
0.0
  0
LINE
  5
8D
330
88
100
AcDbEntity
  8
0
  6
Continuous
 62
     0
370
     0
100
AcDbLine
 10
18.3590103714
 20
3.6816808147
 30
0.0
 11
18.3590103714
 21
-11.4074824226
 31
0.0
  0
LINE
  5
8E
330
88
100
AcDbEntity
  8
0
  6
Continuous
 62
     0
370
     0
100
AcDbLine
 10
18.3590103714
 20
-11.4074824226
 30
0.0
 11
-0.0223339358
 21
-11.4074824226
 31
0.0
  0
MTEXT
  5
8F
330
88
100
AcDbEntity
  8
0
  6
Continuous
 62
     0
370
     0
100
AcDbMText
 10
0.0
 20
3.6093896714
 30
0.0
 40
2.8
 41
0.0
 71
     1
 72
     1
  1
LARGH
  7
SLDTEXTSTYLE0
 73
     1
 44
1.0
  0
MTEXT
  5
90
330
88
100
AcDbEntity
  8
0
  6
Continuous
 62
     0
370
     0
100
AcDbMText
 10
0.0
 20
-0.1906103927
 30
0.0
 40
2.8
 41
0.0
 71
     1
 72
     1
  1
PORTA
  7
SLDTEXTSTYLE0
 73
     1
 44
1.0
  0
MTEXT
  5
91
330
88
100
AcDbEntity
  8
0
  6
Continuous
 62
     0
370
     0
100
AcDbMText
 10
0.0
 20
-7.7906105209
 30
0.0
 40
2.8
 41
0.0
 71
     1
 72
     1
  1
800÷1200
  7
SLDTEXTSTYLE0
 73
     1
 44
1.0
  0
ENDBLK
  5
8A
330
88
100
AcDbEntity
  8
0
100
AcDbBlockEnd
  0
BLOCK
  5
94
330
93
100
AcDbEntity
  8
0
100
AcDbBlockBegin
  2
SW_NOTE_3
 70
     0
 10
0.0
 20
0.0
 30
0.0
  3
SW_NOTE_3
  1
SW_NOTE_3
  0
LINE
  5
96
330
93
100
AcDbEntity
  8
0
  6
Continuous
 62
     0
370
     0
100
AcDbLine
 10
-0.0199102116
 20
-11.2954184871
 30
0.0
 11
-0.0199102116
 21
3.7937447502
 31
0.0
  0
LINE
  5
97
330
93
100
AcDbEntity
  8
0
  6
Continuous
 62
     0
370
     0
100
AcDbLine
 10
-0.0199102116
 20
3.7937447502
 30
0.0
 11
20.1446988419
 21
3.7937447502
 31
0.0
  0
LINE
  5
98
330
93
100
AcDbEntity
  8
0
  6
Continuous
 62
     0
370
     0
100
AcDbLine
 10
20.1446988419
 20
3.7937447502
 30
0.0
 11
20.1446988419
 21
-11.2954184871
 31
0.0
  0
LINE
  5
99
330
93
100
AcDbEntity
  8
0
  6
Continuous
 62
     0
370
     0
100
AcDbLine
 10
20.1446988419
 20
-11.2954184871
 30
0.0
 11
-0.0199102116
 21
-11.2954184871
 31
0.0
  0
MTEXT
  5
9A
330
93
100
AcDbEntity
  8
0
  6
Continuous
 62
     0
370
     0
100
AcDbMText
 10
0.0
 20
3.6093896714
 30
0.0
 40
2.8
 41
0.0
 71
     1
 72
     1
  1
PESO MAX
  7
SLDTEXTSTYLE0
 73
     1
 44
1.0
  0
MTEXT
  5
9B
330
93
100
AcDbEntity
  8
0
  6
Continuous
 62
     0
370
     0
100
AcDbMText
 10
0.0
 20
-0.1906103927
 30
0.0
 40
2.8
 41
0.0
 71
     1
 72
     1
  1
PORTA
  7
SLDTEXTSTYLE0
 73
     1
 44
1.0
  0
MTEXT
  5
9C
330
93
100
AcDbEntity
  8
0
  6
Continuous
 62
     0
370
     0
100
AcDbMText
 10
0.0
 20
-7.7906105209
 30
0.0
 40
2.8
 41
0.0
 71
     1
 72
     1
  1
120Kg
  7
SLDTEXTSTYLE0
 73
     1
 44
1.0
  0
ENDBLK
  5
95
330
93
100
AcDbEntity
  8
0
100
AcDbBlockEnd
  0
BLOCK
  5
9F
330
9E
100
AcDbEntity
  8
0
100
AcDbBlockBegin
  2
SW_NOTE_4
 70
     0
 10
0.0
 20
0.0
 30
0.0
  3
SW_NOTE_4
  1
SW_NOTE_4
  0
LINE
  5
A1
330
9E
100
AcDbEntity
  8
0
  6
Continuous
 62
     0
370
     0
100
AcDbLine
 10
-0.1098248925
 20
-11.400747164
 30
0.0
 11
-0.1098248925
 21
3.6884160733
 31
0.0
  0
LINE
  5
A2
330
9E
100
AcDbEntity
  8
0
  6
Continuous
 62
     0
370
     0
100
AcDbLine
 10
-0.1098248925
 20
3.6884160733
 30
0.0
 11
26.639146301
 21
3.6884160733
 31
0.0
  0
LINE
  5
A3
330
9E
100
AcDbEntity
  8
0
  6
Continuous
 62
     0
370
     0
100
AcDbLine
 10
26.639146301
 20
3.6884160733
 30
0.0
 11
26.639146301
 21
-11.400747164
 31
0.0
  0
LINE
  5
A4
330
9E
100
AcDbEntity
  8
0
  6
Continuous
 62
     0
370
     0
100
AcDbLine
 10
26.639146301
 20
-11.400747164
 30
0.0
 11
-0.1098248925
 21
-11.400747164
 31
0.0
  0
MTEXT
  5
A5
330
9E
100
AcDbEntity
  8
0
  6
Continuous
 62
     0
370
     0
100
AcDbMText
 10
0.0
 20
3.6093896714
 30
0.0
 40
2.8
 41
0.0
 71
     1
 72
     1
  1
RITORNO
  7
SLDTEXTSTYLE0
 73
     1
 44
1.0
  0
MTEXT
  5
A6
330
9E
100
AcDbEntity
  8
0
  6
Continuous
 62
     0
370
     0
100
AcDbMText
 10
0.0
 20
-0.1906103927
 30
0.0
 40
2.8
 41
0.0
 71
     1
 72
     1
  1
AUTOMATICO
  7
SLDTEXTSTYLE0
 73
     1
 44
1.0
  0
MTEXT
  5
A7
330
9E
100
AcDbEntity
  8
0
  6
Continuous
 62
     0
370
     0
100
AcDbMText
 10
0.0
 20
-7.7906105209
 30
0.0
 40
2.8
 41
0.0
 71
     1
 72
     1
  1
80°/85° ÷ 0°
  7
SLDTEXTSTYLE0
 73
     1
 44
1.0
  0
ENDBLK
  5
A0
330
9E
100
AcDbEntity
  8
0
100
AcDbBlockEnd
  0
BLOCK
  5
AA
330
A9
100
AcDbEntity
  8
0
100
AcDbBlockBegin
  2
SW_NOTE_5
 70
     0
 10
0.0
 20
0.0
 30
0.0
  3
SW_NOTE_5
  1
SW_NOTE_5
  0
LINE
  5
AC
330
A9
100
AcDbEntity
  8
0
  6
Continuous
 62
     0
370
     0
100
AcDbLine
 10
-0.0746098872
 20
-11.400747164
 30
0.0
 11
-0.0746098872
 21
3.6884160733
 31
0.0
  0
LINE
  5
AD
330
A9
100
AcDbEntity
  8
0
  6
Continuous
 62
     0
370
     0
100
AcDbLine
 10
-0.0746098872
 20
3.6884160733
 30
0.0
 11
26.6743613062
 21
3.6884160733
 31
0.0
  0
LINE
  5
AE
330
A9
100
AcDbEntity
  8
0
  6
Continuous
 62
     0
370
     0
100
AcDbLine
 10
26.6743613062
 20
3.6884160733
 30
0.0
 11
26.6743613062
 21
-11.400747164
 31
0.0
  0
LINE
  5
AF
330
A9
100
AcDbEntity
  8
0
  6
Continuous
 62
     0
370
     0
100
AcDbLine
 10
26.6743613062
 20
-11.400747164
 30
0.0
 11
-0.0746098872
 21
-11.400747164
 31
0.0
  0
MTEXT
  5
B0
330
A9
100
AcDbEntity
  8
0
  6
Continuous
 62
     0
370
     0
100
AcDbMText
 10
0.0
 20
3.6093896714
 30
0.0
 40
2.8
 41
0.0
 71
     1
 72
     1
  1
POSIZIONI DI
  7
SLDTEXTSTYLE0
 73
     1
 44
1.0
  0
MTEXT
  5
B1
330
A9
100
AcDbEntity
  8
0
  6
Continuous
 62
     0
370
     0
100
AcDbMText
 10
0.0
 20
-0.1906103927
 30
0.0
 40
2.8
 41
0.0
 71
     1
 72
     1
  1
STOP
  7
SLDTEXTSTYLE0
 73
     1
 44
1.0
  0
MTEXT
  5
B3
330
A9
100
AcDbEntity
  8
0
  6
Continuous
 62
     0
370
     0
100
AcDbMText
 10
0.0
 20
-7.7906105209
 30
0.0
 40
2.8
 41
0.0
 71
     1
 72
     1
  1
90°  180°
  7
SLDTEXTSTYLE1
 73
     1
 44
1.0
  0
ENDBLK
  5
AB
330
A9
100
AcDbEntity
  8
0
100
AcDbBlockEnd
  0
BLOCK
  5
B6
330
B5
100
AcDbEntity
  8
0
100
AcDbBlockBegin
  2
SW_NOTE_6
 70
     0
 10
0.0
 20
0.0
 30
0.0
  3
SW_NOTE_6
  1
SW_NOTE_6
  0
LINE
  5
B8
330
B5
100
AcDbEntity
  8
0
  6
Continuous
 62
     0
370
     0
100
AcDbLine
 10
-0.0271586942
 20
-11.2944683538
 30
0.0
 11
-0.0271586942
 21
3.7946948835
 31
0.0
  0
LINE
  5
B9
330
B5
100
AcDbEntity
  8
0
  6
Continuous
 62
     0
370
     0
100
AcDbLine
 10
-0.0271586942
 20
3.7946948835
 30
0.0
 11
31.3857356816
 21
3.7946948835
 31
0.0
  0
LINE
  5
BA
330
B5
100
AcDbEntity
  8
0
  6
Continuous
 62
     0
370
     0
100
AcDbLine
 10
31.3857356816
 20
3.7946948835
 30
0.0
 11
31.3857356816
 21
-11.2944683538
 31
0.0
  0
LINE
  5
BB
330
B5
100
AcDbEntity
  8
0
  6
Continuous
 62
     0
370
     0
100
AcDbLine
 10
31.3857356816
 20
-11.2944683538
 30
0.0
 11
-0.0271586942
 21
-11.2944683538
 31
0.0
  0
MTEXT
  5
BC
330
B5
100
AcDbEntity
  8
0
  6
Continuous
 62
     0
370
     0
100
AcDbMText
 10
0.0
 20
3.6093896714
 30
0.0
 40
2.8
 41
0.0
 71
     1
 72
     1
  1
FORZA
  7
SLDTEXTSTYLE0
 73
     1
 44
1.0
  0
MTEXT
  5
BD
330
B5
100
AcDbEntity
  8
0
  6
Continuous
 62
     0
370
     0
100
AcDbMText
 10
0.0
 20
-0.1906103927
 30
0.0
 40
2.8
 41
0.0
 71
     1
 72
     1
  1
CHIUDIPORTA
  7
SLDTEXTSTYLE0
 73
     1
 44
1.0
  0
MTEXT
  5
BE
330
B5
100
AcDbEntity
  8
0
  6
Continuous
 62
     0
370
     0
100
AcDbMText
 10
0.0
 20
-7.7906105209
 30
0.0
 40
2.8
 41
0.0
 71
     1
 72
     1
  1
FORZA 3
  7
SLDTEXTSTYLE0
 73
     1
 44
1.0
  0
ENDBLK
  5
B7
330
B5
100
AcDbEntity
  8
0
100
AcDbBlockEnd
  0
BLOCK
  5
C1
330
C0
100
AcDbEntity
  8
0
100
AcDbBlockBegin
  2
SW_NOTE_7
 70
     0
 10
0.0
 20
0.0
 30
0.0
  3
SW_NOTE_7
  1
SW_NOTE_7
  0
LINE
  5
C3
330
C0
100
AcDbEntity
  8
0
  6
Continuous
 62
     0
370
     0
100
AcDbLine
 10
-0.0751203214
 20
0.388800007
 30
0.0
 11
-0.0751203214
 21
4.0925037107
 31
0.0
  0
LINE
  5
C4
330
C0
100
AcDbEntity
  8
0
  6
Continuous
 62
     0
370
     0
100
AcDbLine
 10
-0.0751203214
 20
4.0925037107
 30
0.0
 11
81.1320127376
 21
4.0925037107
 31
0.0
  0
LINE
  5
C5
330
C0
100
AcDbEntity
  8
0
  6
Continuous
 62
     0
370
     0
100
AcDbLine
 10
81.1320127376
 20
4.0925037107
 30
0.0
 11
81.1320127376
 21
0.388800007
 31
0.0
  0
LINE
  5
C6
330
C0
100
AcDbEntity
  8
0
  6
Continuous
 62
     0
370
     0
100
AcDbLine
 10
81.1320127376
 20
0.388800007
 30
0.0
 11
-0.0751203214
 21
0.388800007
 31
0.0
  0
MTEXT
  5
C7
330
C0
100
AcDbEntity
  8
0
  6
Continuous
 62
     0
370
     0
100
AcDbMText
 10
0.0
 20
3.6093896714
 30
0.0
 40
2.8
 41
0.0
 71
     1
 72
     1
  1
LA CERNIERA è PRECARICATA DI 15°
  7
SLDTEXTSTYLE0
 73
     1
 44
1.0
  0
ENDBLK
  5
C2
330
C0
100
AcDbEntity
  8
0
100
AcDbBlockEnd
  0
BLOCK
  5
CA
330
C9
100
AcDbEntity
  8
0
100
AcDbBlockBegin
  2
SW_NOTE_8
 70
     0
 10
0.0
 20
0.0
 30
0.0
  3
SW_NOTE_8
  1
SW_NOTE_8
  0
LINE
  5
CC
330
C9
100
AcDbEntity
  8
0
  6
Continuous
 62
     0
370
     0
100
AcDbLine
 10
-0.1187893982
 20
-11.2954184871
 30
0.0
 11
-0.1187893982
 21
3.7937447502
 31
0.0
  0
LINE
  5
CD
330
C9
100
AcDbEntity
  8
0
  6
Continuous
 62
     0
370
     0
100
AcDbLine
 10
-0.1187893982
 20
3.7937447502
 30
0.0
 11
24.5725686265
 21
3.7937447502
 31
0.0
  0
LINE
  5
CE
330
C9
100
AcDbEntity
  8
0
  6
Continuous
 62
     0
370
     0
100
AcDbLine
 10
24.5725686265
 20
3.7937447502
 30
0.0
 11
24.5725686265
 21
-11.2954184871
 31
0.0
  0
LINE
  5
CF
330
C9
100
AcDbEntity
  8
0
  6
Continuous
 62
     0
370
     0
100
AcDbLine
 10
24.5725686265
 20
-11.2954184871
 30
0.0
 11
-0.1187893982
 21
-11.2954184871
 31
0.0
  0
MTEXT
  5
D0
330
C9
100
AcDbEntity
  8
0
  6
Continuous
 62
     0
370
     0
100
AcDbMText
 10
0.0
 20
3.6093896714
 30
0.0
 40
2.8
 41
0.0
 71
     1
 72
     1
  1
TEMPERATURE
  7
SLDTEXTSTYLE0
 73
     1
 44
1.0
  0
MTEXT
  5
D1
330
C9
100
AcDbEntity
  8
0
  6
Continuous
 62
     0
370
     0
100
AcDbMText
 10
0.0
 20
-3.9906104568
 30
0.0
 40
2.8
 41
0.0
 71
     1
 72
     1
  1
-15°C
  7
SLDTEXTSTYLE0
 73
     1
 44
1.0
  0
MTEXT
  5
D2
330
C9
100
AcDbEntity
  8
0
  6
Continuous
 62
     0
370
     0
100
AcDbMText
 10
0.0
 20
-7.7906105209
 30
0.0
 40
2.8
 41
0.0
 71
     1
 72
     1
  1
+40°C
  7
SLDTEXTSTYLE0
 73
     1
 44
1.0
  0
ENDBLK
  5
CB
330
C9
100
AcDbEntity
  8
0
100
AcDbBlockEnd
  0
ENDSEC
  0
SECTION
  2
ENTITIES
  0
LINE
  5
D4
330
1F
100
AcDbEntity
  8
0
100
AcDbLine
 10
-297.9790774643
 20
336.0412917826
 30
0.0
 11
-297.9790774643
 21
334.2912917826
 31
0.0
  0
LINE
  5
D5
330
1F
100
AcDbEntity
  8
0
100
AcDbLine
 10
-269.9790774643
 20
334.0412917826
 30
0.0
 11
-269.9790774643
 21
336.0412917826
 31
0.0
  0
ARC
  5
D6
330
1F
100
AcDbEntity
  8
0
100
AcDbCircle
 10
-283.9790774643
 20
304.874625116
 30
0.0
 40
34.16666666666671
100
AcDbArc
 50
65.810485846
 51
114.189514154
  0
LINE
  5
D7
330
1F
100
AcDbEntity
  8
0
100
AcDbLine
 10
-269.9790774643
 20
158.2412917826
 30
0.0
 11
-269.9790774643
 21
160.2412917826
 31
0.0
  0
LINE
  5
D8
330
1F
100
AcDbEntity
  8
0
100
AcDbLine
 10
-297.9790774643
 20
160.2412917826
 30
0.0
 11
-297.9790774643
 21
158.2412917826
 31
0.0
  0
ARC
  5
D9
330
1F
100
AcDbEntity
  8
0
100
AcDbCircle
 10
-283.9790774643
 20
189.4079584493
 30
0.0
 40
34.16666666666674
100
AcDbArc
 50
275.6019008133
 51
294.189514154
  0
ARC
  5
DA
330
1F
100
AcDbEntity
  8
0
100
AcDbCircle
 10
-283.9790774643
 20
189.4079584493
 30
0.0
 40
34.16666666666672
100
AcDbArc
 50
245.810485846
 51
264.3980991868
  0
LINE
  5
DB
330
1F
100
AcDbEntity
  8
0
100
AcDbLine
 10
-297.9790774643
 20
248.7912917826
 30
0.0
 11
-297.9790774643
 21
245.2412917826
 31
0.0
  0
LINE
  5
DC
330
1F
100
AcDbEntity
  8
0
100
AcDbLine
 10
-269.9790774643
 20
245.2412917826
 30
0.0
 11
-269.9790774643
 21
249.0412917826
 31
0.0
  0
LINE
  5
DD
330
1F
100
AcDbEntity
  8
0
100
AcDbLine
 10
-269.8790774643
 20
249.0412917826
 30
0.0
 11
-269.8790774643
 21
334.0412917826
 31
0.0
  0
LINE
  5
DE
330
1F
100
AcDbEntity
  8
0
100
AcDbLine
 10
-298.0790774643
 20
245.2412917826
 30
0.0
 11
-298.0790774643
 21
160.2412917826
 31
0.0
  0
LINE
  5
DF
330
1F
100
AcDbEntity
  8
0
100
AcDbLine
 10
-274.5900688905
 20
170.7412917826
 30
0.0
 11
-277.3460358584
 21
170.7412917826
 31
0.0
  0
LINE
  5
E0
330
1F
100
AcDbEntity
  8
0
100
AcDbLine
 10
-274.6187006782
 20
170.5412917826
 30
0.0
 11
-277.3394542503
 21
170.5412917826
 31
0.0
  0
LINE
  5
E1
330
1F
100
AcDbEntity
  8
0
100
AcDbLine
 10
-274.8607640019
 20
169.9412917826
 30
0.0
 11
-277.0973909266
 21
169.9412917826
 31
0.0
  0
LINE
  5
E2
330
1F
100
AcDbEntity
  8
0
100
AcDbLine
 10
-275.0481646292
 20
169.7412917826
 30
0.0
 11
-276.9160411471
 21
169.7412917826
 31
0.0
  0
LINE
  5
E3
330
1F
100
AcDbEntity
  8
0
100
AcDbLine
 10
-275.29169111
 20
221.2412917826
 30
0.0
 11
-276.6664638185
 21
221.2412917826
 31
0.0
  0
LINE
  5
E4
330
1F
100
AcDbEntity
  8
0
100
AcDbLine
 10
-290.1790774643
 20
249.9912917826
 30
0.0
 11
-290.9790774643
 21
250.7912917826
 31
0.0
  0
LINE
  5
E5
330
1F
100
AcDbEntity
  8
0
100
AcDbLine
 10
-290.1790774643
 20
333.0912917826
 30
0.0
 11
-290.9790774643
 21
332.2912917826
 31
0.0
  0
LINE
  5
E6
330
1F
100
AcDbEntity
  8
0
100
AcDbLine
 10
-290.1790774643
 20
333.0912917826
 30
0.0
 11
-288.9790774643
 21
333.0912917826
 31
0.0
  0
LINE
  5
E7
330
1F
100
AcDbEntity
  8
0
100
AcDbLine
 10
-288.9790774643
 20
333.0912917826
 30
0.0
 11
-288.9790774643
 21
249.9912917826
 31
0.0
  0
LINE
  5
E8
330
1F
100
AcDbEntity
  8
0
100
AcDbLine
 10
-288.9790774643
 20
249.9912917826
 30
0.0
 11
-290.1790774643
 21
249.9912917826
 31
0.0
  0
LINE
  5
E9
330
1F
100
AcDbEntity
  8
0
100
AcDbLine
 10
-327.7790774643
 20
334.2912917826
 30
0.0
 11
-290.1790774643
 21
334.2912917826
 31
0.0
  0
LINE
  5
EA
330
1F
100
AcDbEntity
  8
0
100
AcDbLine
 10
-290.1790774643
 20
334.2912917826
 30
0.0
 11
-290.1790774643
 21
333.0912917826
 31
0.0
  0
LINE
  5
EB
330
1F
100
AcDbEntity
  8
0
100
AcDbLine
 10
-326.9790774643
 20
332.2912917826
 30
0.0
 11
-327.7790774643
 21
333.0912917826
 31
0.0
  0
LINE
  5
EC
330
1F
100
AcDbEntity
  8
0
100
AcDbLine
 10
-327.7790774643
 20
333.0912917826
 30
0.0
 11
-327.7790774643
 21
334.2912917826
 31
0.0
  0
LINE
  5
ED
330
1F
100
AcDbEntity
  8
0
100
AcDbLine
 10
-290.1790774643
 20
248.7912917826
 30
0.0
 11
-327.7790774643
 21
248.7912917826
 31
0.0
  0
LINE
  5
EE
330
1F
100
AcDbEntity
  8
0
100
AcDbLine
 10
-327.7790774643
 20
248.7912917826
 30
0.0
 11
-327.7790774643
 21
249.9912917826
 31
0.0
  0
LINE
  5
EF
330
1F
100
AcDbEntity
  8
0
100
AcDbLine
 10
-326.9790774643
 20
250.7912917826
 30
0.0
 11
-327.7790774643
 21
249.9912917826
 31
0.0
  0
LINE
  5
F0
330
1F
100
AcDbEntity
  8
0
100
AcDbLine
 10
-290.1790774643
 20
249.9912917826
 30
0.0
 11
-290.1790774643
 21
248.7912917826
 31
0.0
  0
LINE
  5
F1
330
1F
100
AcDbEntity
  8
0
100
AcDbLine
 10
-328.9790774643
 20
249.9912917826
 30
0.0
 11
-328.9790774643
 21
333.0912917826
 31
0.0
  0
LINE
  5
F2
330
1F
100
AcDbEntity
  8
0
100
AcDbLine
 10
-328.9790774643
 20
333.0912917826
 30
0.0
 11
-327.7790774643
 21
333.0912917826
 31
0.0
  0
LINE
  5
F3
330
1F
100
AcDbEntity
  8
0
100
AcDbLine
 10
-327.7790774643
 20
249.9912917826
 30
0.0
 11
-328.9790774643
 21
249.9912917826
 31
0.0
  0
LINE
  5
F4
330
1F
100
AcDbEntity
  8
0
100
AcDbLine
 10
-283.9790774643
 20
336.0412917826
 30
0.0
 11
-269.9790774643
 21
336.0412917826
 31
0.0
  0
LINE
  5
F5
330
1F
100
AcDbEntity
  8
0
100
AcDbLine
 10
-297.9790774643
 20
336.0412917826
 30
0.0
 11
-283.9790774643
 21
336.0412917826
 31
0.0
  0
LINE
  5
F6
330
1F
100
AcDbEntity
  8
0
100
AcDbLine
 10
-269.9790774643
 20
158.2412917826
 30
0.0
 11
-297.9790774643
 21
158.2412917826
 31
0.0
  0
ARC
  5
F7
330
1F
100
AcDbEntity
  8
0
100
AcDbCircle
 10
-283.7650266931
 20
189.2348244346
 30
0.0
 40
33.86157048704539
100
AcDbArc
 50
269.6378110262
 51
272.4602560899
  0
ARC
  5
F8
330
1F
100
AcDbEntity
  8
0
100
AcDbCircle
 10
-281.2810633321
 20
161.8981179527
 30
0.0
 40
6.524854533791759
100
AcDbArc
 50
269.1806963206
 51
276.6646257327
  0
ARC
  5
F9
330
1F
100
AcDbEntity
  8
0
100
AcDbCircle
 10
-281.4946488344
 20
166.0838997992
 30
0.0
 40
10.71063548057129
100
AcDbArc
 50
264.7994010768001
 51
275.2005989232
  0
ARC
  5
FA
330
1F
100
AcDbEntity
  8
0
100
AcDbCircle
 10
-284.1931291922
 20
189.2348219827
 30
0.0
 40
33.86156801941789
100
AcDbArc
 50
267.0754672175
 51
272.9245327825
  0
ARC
  5
FB
330
1F
100
AcDbEntity
  8
0
100
AcDbCircle
 10
-286.6774465078
 20
161.8893040173
 30
0.0
 40
6.516033146216178
100
AcDbArc
 50
264.3912704035001
 51
276.6685763301
  0
ARC
  5
FC
330
1F
100
AcDbEntity
  8
0
100
AcDbCircle
 10
-286.4637354572
 20
166.0842300926
 30
0.0
 40
10.7109724596788
100
AcDbArc
 50
269.3577711885001
 51
274.3748776654
  0
LINE
  5
FD
330
1F
100
AcDbEntity
  8
0
100
AcDbLine
 10
-269.4790774643
 20
244.0412917826
 30
0.0
 11
-265.7790774643
 21
244.0412917826
 31
0.0
  0
LINE
  5
FE
330
1F
100
AcDbEntity
  8
0
100
AcDbLine
 10
-265.7790774643
 20
161.4412917826
 30
0.0
 11
-265.7790774643
 21
244.0412917826
 31
0.0
  0
LINE
  5
FF
330
1F
100
AcDbEntity
  8
0
100
AcDbLine
 10
-269.4790774643
 20
161.4412917826
 30
0.0
 11
-265.7790774643
 21
161.4412917826
 31
0.0
  0
ARC
  5
100
330
1F
100
AcDbEntity
  8
0
100
AcDbCircle
 10
-269.4790774643
 20
162.2412917826
 30
0.0
 40
2.000000000000002
100
AcDbArc
 50
180.0
 51
203.5781784782
  0
LINE
  5
101
330
1F
100
AcDbEntity
  8
0
100
AcDbLine
 10
-271.4790774643
 20
162.2412917826
 30
0.0
 11
-271.4790774643
 21
243.2412917826
 31
0.0
  0
ARC
  5
102
330
1F
100
AcDbEntity
  8
0
100
AcDbCircle
 10
-269.4790774643
 20
243.2412917826
 30
0.0
 40
2.000000000000065
100
AcDbArc
 50
156.4218215218
 51
180.0
  0
LINE
  5
103
330
1F
100
AcDbEntity
  8
0
100
AcDbLine
 10
-269.4790774643
 20
161.4412917826
 30
0.0
 11
-271.3121077422
 21
161.4412917826
 31
0.0
  0
LINE
  5
104
330
1F
100
AcDbEntity
  8
0
100
AcDbLine
 10
-271.3121077422
 20
244.0412917826
 30
0.0
 11
-269.4790774643
 21
244.0412917826
 31
0.0
  0
LINE
  5
105
330
1F
100
AcDbEntity
  8
0
100
AcDbLine
 10
-265.7790774643
 20
244.2412917826
 30
0.0
 11
-265.7790774643
 21
245.2412917826
 31
0.0
  0
LINE
  5
106
330
1F
100
AcDbEntity
  8
0
100
AcDbLine
 10
-269.4790774643
 20
245.2412917826
 30
0.0
 11
-265.7790774643
 21
245.2412917826
 31
0.0
  0
LINE
  5
107
330
1F
100
AcDbEntity
  8
0
100
AcDbLine
 10
-269.9790774643
 20
244.2412917826
 30
0.0
 11
-265.7790774643
 21
244.2412917826
 31
0.0
  0
ARC
  5
108
330
1F
100
AcDbEntity
  8
0
100
AcDbCircle
 10
-269.9790774643
 20
243.7412917826
 30
0.0
 40
0.5000000000000966
100
AcDbArc
 50
90.0
 51
143.1301023542
  0
ARC
  5
109
330
1F
100
AcDbEntity
  8
0
100
AcDbCircle
 10
-269.4790774643
 20
243.2412917826
 30
0.0
 40
2.000000000000117
100
AcDbArc
 50
90.0
 51
156.4218215218
  0
ARC
  5
10A
330
1F
100
AcDbEntity
  8
0
100
AcDbCircle
 10
-269.9790774643
 20
161.7412917826
 30
0.0
 40
0.5000000000000341
100
AcDbArc
 50
216.8698976458
 51
270.0
  0
ARC
  5
10B
330
1F
100
AcDbEntity
  8
0
100
AcDbCircle
 10
-269.4790774643
 20
162.2412917826
 30
0.0
 40
2.000000000000002
100
AcDbArc
 50
203.5781784782
 51
270.0
  0
LINE
  5
10C
330
1F
100
AcDbEntity
  8
0
100
AcDbLine
 10
-269.9790774643
 20
161.2412917826
 30
0.0
 11
-265.7790774643
 21
161.2412917826
 31
0.0
  0
LINE
  5
10D
330
1F
100
AcDbEntity
  8
0
100
AcDbLine
 10
-269.4790774643
 20
160.2412917826
 30
0.0
 11
-265.7790774643
 21
160.2412917826
 31
0.0
  0
LINE
  5
10E
330
1F
100
AcDbEntity
  8
0
100
AcDbLine
 10
-265.7790774643
 20
160.2412917826
 30
0.0
 11
-265.7790774643
 21
161.2412917826
 31
0.0
  0
LINE
  5
10F
330
1F
100
AcDbEntity
  8
0
100
AcDbLine
 10
-329.9790774643
 20
334.0412917826
 30
0.0
 11
-329.9790774643
 21
249.0412917826
 31
0.0
  0
LINE
  5
110
330
1F
100
AcDbEntity
  8
0
100
AcDbLine
 10
-329.9790774643
 20
334.0412917826
 30
0.0
 11
-327.7790774643
 21
334.0412917826
 31
0.0
  0
LINE
  5
111
330
1F
100
AcDbEntity
  8
0
100
AcDbLine
 10
-290.1790774643
 20
334.0412917826
 30
0.0
 11
-288.4292794864
 21
334.0412917826
 31
0.0
  0
LINE
  5
112
330
1F
100
AcDbEntity
  8
0
100
AcDbLine
 10
-329.9790774643
 20
249.0412917826
 30
0.0
 11
-327.7790774643
 21
249.0412917826
 31
0.0
  0
LINE
  5
113
330
1F
100
AcDbEntity
  8
0
100
AcDbLine
 10
-290.1790774643
 20
249.0412917826
 30
0.0
 11
-288.4292794864
 21
249.0412917826
 31
0.0
  0
LINE
  5
114
330
1F
100
AcDbEntity
  8
0
100
AcDbLine
 10
-288.4292794864
 20
249.0412917826
 30
0.0
 11
-287.9320185387
 21
249.0412917826
 31
0.0
  0
LINE
  5
115
330
1F
100
AcDbEntity
  8
0
100
AcDbLine
 10
-288.4292794864
 20
334.0412917826
 30
0.0
 11
-287.9320185387
 21
334.0412917826
 31
0.0
  0
LINE
  5
116
330
1F
100
AcDbEntity
  8
0
100
AcDbLine
 10
-287.9320185387
 20
249.0412917826
 30
0.0
 11
-287.6101281049
 21
249.0412917826
 31
0.0
  0
LINE
  5
117
330
1F
100
AcDbEntity
  8
0
100
AcDbLine
 10
-287.9320185387
 20
334.0412917826
 30
0.0
 11
-287.6101281049
 21
334.0412917826
 31
0.0
  0
LINE
  5
118
330
1F
100
AcDbEntity
  8
0
100
AcDbLine
 10
-287.6101281049
 20
249.0412917826
 30
0.0
 11
-279.4934341438
 21
249.0412917826
 31
0.0
  0
LINE
  5
119
330
1F
100
AcDbEntity
  8
0
100
AcDbLine
 10
-287.6101281049
 20
334.0412917826
 30
0.0
 11
-279.4934341438
 21
334.0412917826
 31
0.0
  0
LINE
  5
11A
330
1F
100
AcDbEntity
  8
0
100
AcDbLine
 10
-279.4934341438
 20
249.0412917826
 30
0.0
 11
-269.8790774643
 21
249.0412917826
 31
0.0
  0
LINE
  5
11B
330
1F
100
AcDbEntity
  8
0
100
AcDbLine
 10
-279.4934341438
 20
334.0412917826
 30
0.0
 11
-269.8790774643
 21
334.0412917826
 31
0.0
  0
LINE
  5
11C
330
1F
100
AcDbEntity
  8
0
100
AcDbLine
 10
-268.4790774643
 20
244.2412917826
 30
0.0
 11
-265.9790774643
 21
244.2412917826
 31
0.0
  0
LINE
  5
11D
330
1F
100
AcDbEntity
  8
0
100
AcDbLine
 10
-265.9790774643
 20
244.2412917826
 30
0.0
 11
-265.4790774643
 21
243.7412917826
 31
0.0
  0
LINE
  5
11E
330
1F
100
AcDbEntity
  8
0
100
AcDbLine
 10
-265.4790774643
 20
243.7412917826
 30
0.0
 11
-265.4790774643
 21
161.7412917826
 31
0.0
  0
LINE
  5
11F
330
1F
100
AcDbEntity
  8
0
100
AcDbLine
 10
-265.9790774643
 20
161.2412917826
 30
0.0
 11
-265.4790774643
 21
161.7412917826
 31
0.0
  0
LINE
  5
120
330
1F
100
AcDbEntity
  8
0
100
AcDbLine
 10
-268.4790774643
 20
161.2412917826
 30
0.0
 11
-265.9790774643
 21
161.2412917826
 31
0.0
  0
LINE
  5
121
330
1F
100
AcDbEntity
  8
0
100
AcDbLine
 10
-270.1790774643
 20
244.0412917826
 30
0.0
 11
-269.9790774643
 21
244.2412917826
 31
0.0
  0
LINE
  5
122
330
1F
100
AcDbEntity
  8
0
100
AcDbLine
 10
-270.1790774643
 20
161.4412917826
 30
0.0
 11
-269.9790774643
 21
161.2412917826
 31
0.0
  0
LINE
  5
123
330
1F
100
AcDbEntity
  8
0
100
AcDbLine
 10
-270.2290774643
 20
160.2412917826
 30
0.0
 11
-270.3496607676
 21
160.2412917826
 31
0.0
  0
LINE
  5
124
330
1F
100
AcDbEntity
  8
0
100
AcDbLine
 10
-270.2290774643
 20
245.2412917826
 30
0.0
 11
-270.3496607676
 21
245.2412917826
 31
0.0
  0
LINE
  5
125
330
1F
100
AcDbEntity
  8
0
100
AcDbLine
 10
-270.2290774643
 20
245.2412917826
 30
0.0
 11
-270.2290774643
 21
245.0953414044
 31
0.0
  0
LINE
  5
126
330
1F
100
AcDbEntity
  8
0
100
AcDbLine
 10
-270.2290774643
 20
244.1743044845
 30
0.0
 11
-270.2290774643
 21
244.0412917826
 31
0.0
  0
LINE
  5
127
330
1F
100
AcDbEntity
  8
0
100
AcDbLine
 10
-270.2290774643
 20
160.2412917826
 30
0.0
 11
-270.2290774643
 21
160.3872421609
 31
0.0
  0
LINE
  5
128
330
1F
100
AcDbEntity
  8
0
100
AcDbLine
 10
-270.2290774643
 20
161.3082790807
 30
0.0
 11
-270.2290774643
 21
161.4412917826
 31
0.0
  0
LINE
  5
129
330
1F
100
AcDbEntity
  8
0
100
AcDbLine
 10
-280.4065711382
 20
160.2412917826
 30
0.0
 11
-278.5267831404
 21
160.2412917826
 31
0.0
  0
LINE
  5
12A
330
1F
100
AcDbEntity
  8
0
100
AcDbLine
 10
-280.4065711382
 20
245.2412917826
 30
0.0
 11
-278.5267831404
 21
245.2412917826
 31
0.0
  0
LINE
  5
12B
330
1F
100
AcDbEntity
  8
0
100
AcDbLine
 10
-265.6790774643
 20
160.2412917826
 30
0.0
 11
-265.7790774643
 21
160.2412917826
 31
0.0
  0
LINE
  5
12C
330
1F
100
AcDbEntity
  8
0
100
AcDbLine
 10
-265.6790774643
 20
161.5412917826
 30
0.0
 11
-265.6790774643
 21
160.2412917826
 31
0.0
  0
LINE
  5
12D
330
1F
100
AcDbEntity
  8
0
100
AcDbLine
 10
-265.6790774643
 20
245.2412917826
 30
0.0
 11
-265.7790774643
 21
245.2412917826
 31
0.0
  0
LINE
  5
12E
330
1F
100
AcDbEntity
  8
0
100
AcDbLine
 10
-265.6790774643
 20
243.9412917826
 30
0.0
 11
-265.6790774643
 21
245.2412917826
 31
0.0
  0
CIRCLE
  5
12F
330
1F
100
AcDbEntity
  8
0
100
AcDbCircle
 10
-275.9790774643
 20
170.7412917826
 30
0.0
 40
1.375
  0
CIRCLE
  5
130
330
1F
100
AcDbEntity
  8
0
100
AcDbCircle
 10
-275.9790774643
 20
170.7412917826
 30
0.0
 40
1.875
  0
CIRCLE
  5
131
330
1F
100
AcDbEntity
  8
0
100
AcDbCircle
 10
-275.9790774643
 20
220.7412917826
 30
0.0
 40
1.349999999999966
  0
LINE
  5
132
330
1F
100
AcDbEntity
  8
0
100
AcDbLine
 10
-271.6790774643
 20
245.2412917826
 30
0.0
 11
-271.6790774643
 21
160.2412917826
 31
0.0
  0
LINE
  5
133
330
1F
100
AcDbEntity
  8
0
100
AcDbLine
 10
-278.5267831404
 20
160.2412917826
 30
0.0
 11
-271.6790774643
 21
160.2412917826
 31
0.0
  0
CIRCLE
  5
134
330
1F
100
AcDbEntity
  8
0
100
AcDbCircle
 10
-275.9790774643
 20
189.3412917826
 30
0.0
 40
1.349999999999966
  0
LINE
  5
135
330
1F
100
AcDbEntity
  8
0
100
AcDbLine
 10
-278.5267831404
 20
245.2412917826
 30
0.0
 11
-271.6790774643
 21
245.2412917826
 31
0.0
  0
CIRCLE
  5
136
330
1F
100
AcDbEntity
  8
0
100
AcDbCircle
 10
-275.9790774643
 20
220.7412917826
 30
0.0
 40
0.8499999999999659
  0
CIRCLE
  5
137
330
1F
100
AcDbEntity
  8
0
100
AcDbCircle
 10
-275.9790774643
 20
189.3412917826
 30
0.0
 40
0.8499999999999659
  0
LINE
  5
138
330
1F
100
AcDbEntity
  8
0
100
AcDbLine
 10
-271.6790774643
 20
160.2412917826
 30
0.0
 11
-271.559377798
 21
160.2412917826
 31
0.0
  0
LINE
  5
139
330
1F
100
AcDbEntity
  8
0
100
AcDbLine
 10
-271.6790774643
 20
245.2412917826
 30
0.0
 11
-271.559377798
 21
245.2412917826
 31
0.0
  0
LINE
  5
13A
330
1F
100
AcDbEntity
  8
0
100
AcDbLine
 10
-270.3496607676
 20
160.2412917826
 30
0.0
 11
-271.559377798
 21
160.2412917826
 31
0.0
  0
LINE
  5
13B
330
1F
100
AcDbEntity
  8
0
100
AcDbLine
 10
-270.3496607676
 20
245.2412917826
 30
0.0
 11
-271.559377798
 21
245.2412917826
 31
0.0
  0
LINE
  5
13C
330
1F
100
AcDbEntity
  8
0
100
AcDbLine
 10
-280.4065711382
 20
160.2412917826
 30
0.0
 11
-290.2746131973
 21
160.2412917826
 31
0.0
  0
LINE
  5
13D
330
1F
100
AcDbEntity
  8
0
100
AcDbLine
 10
-280.4065711382
 20
245.2412917826
 30
0.0
 11
-290.2746131973
 21
245.2412917826
 31
0.0
  0
LINE
  5
13E
330
1F
100
AcDbEntity
  8
0
100
AcDbLine
 10
-265.4790774643
 20
245.2412917826
 30
0.0
 11
-265.4790774643
 21
243.7412917826
 31
0.0
  0
LINE
  5
13F
330
1F
100
AcDbEntity
  8
0
100
AcDbLine
 10
-265.4790774643
 20
161.7412917826
 30
0.0
 11
-265.4790774643
 21
160.2412917826
 31
0.0
  0
LINE
  5
140
330
1F
100
AcDbEntity
  8
0
100
AcDbLine
 10
-265.4790774643
 20
160.2412917826
 30
0.0
 11
-265.6790774643
 21
160.2412917826
 31
0.0
  0
LINE
  5
141
330
1F
100
AcDbEntity
  8
0
100
AcDbLine
 10
-265.4790774643
 20
245.2412917826
 30
0.0
 11
-265.6790774643
 21
245.2412917826
 31
0.0
  0
LINE
  5
142
330
1F
100
AcDbEntity
  8
0
100
AcDbLine
 10
-298.0790774643
 20
160.2412917826
 30
0.0
 11
-290.2746131973
 21
160.2412917826
 31
0.0
  0
LINE
  5
143
330
1F
100
AcDbEntity
  8
0
100
AcDbLine
 10
-290.2746131973
 20
245.2412917826
 30
0.0
 11
-298.0790774643
 21
245.2412917826
 31
0.0
  0
LINE
  5
144
330
1F
100
AcDbEntity
  8
0
  6
Continuous
 62
     8
370
     0
100
AcDbLine
 10
-290.9790774643
 20
250.7912917826
 30
0.0
 11
-290.9790774643
 21
332.2912917826
 31
0.0
  0
LINE
  5
145
330
1F
100
AcDbEntity
  8
0
  6
Continuous
 62
     8
370
     0
100
AcDbLine
 10
-290.9790774643
 20
332.2912917826
 30
0.0
 11
-326.9790774643
 21
332.2912917826
 31
0.0
  0
LINE
  5
146
330
1F
100
AcDbEntity
  8
0
  6
Continuous
 62
     8
370
     0
100
AcDbLine
 10
-326.9790774643
 20
250.7912917826
 30
0.0
 11
-290.9790774643
 21
250.7912917826
 31
0.0
  0
LINE
  5
147
330
1F
100
AcDbEntity
  8
0
  6
Continuous
 62
     8
370
     0
100
AcDbLine
 10
-326.9790774643
 20
332.2912917826
 30
0.0
 11
-326.9790774643
 21
250.7912917826
 31
0.0
  0
LINE
  5
148
330
1F
100
AcDbEntity
  8
0
  6
Continuous
 62
     8
370
     0
100
AcDbLine
 10
-269.4790774643
 20
244.0412917826
 30
0.0
 11
-269.4790774643
 21
161.4412917826
 31
0.0
  0
LINE
  5
149
330
1F
100
AcDbEntity
  8
0
  6
Continuous
 62
     8
370
     0
100
AcDbLine
 10
-288.4292794864
 20
334.0412917826
 30
0.0
 11
-288.4292794864
 21
249.0412917826
 31
0.0
  0
LINE
  5
14A
330
1F
100
AcDbEntity
  8
0
  6
Continuous
 62
     8
370
     0
100
AcDbLine
 10
-287.9320185387
 20
334.0412917826
 30
0.0
 11
-287.9320185387
 21
249.0412917826
 31
0.0
  0
LINE
  5
14B
330
1F
100
AcDbEntity
  8
0
  6
Continuous
 62
     8
370
     0
100
AcDbLine
 10
-287.6101281049
 20
334.0412917826
 30
0.0
 11
-287.6101281049
 21
249.0412917826
 31
0.0
  0
LINE
  5
14C
330
1F
100
AcDbEntity
  8
0
  6
Continuous
 62
     8
370
     0
100
AcDbLine
 10
-279.4934341438
 20
334.0412917826
 30
0.0
 11
-279.4934341438
 21
249.0412917826
 31
0.0
  0
LINE
  5
14D
330
1F
100
AcDbEntity
  8
0
  6
Continuous
 62
     8
370
     0
100
AcDbLine
 10
-268.4790774643
 20
244.2412917826
 30
0.0
 11
-268.4790774643
 21
244.0412917826
 31
0.0
  0
LINE
  5
14E
330
1F
100
AcDbEntity
  8
0
  6
Continuous
 62
     8
370
     0
100
AcDbLine
 10
-268.4790774643
 20
161.4412917826
 30
0.0
 11
-268.4790774643
 21
161.2412917826
 31
0.0
  0
LINE
  5
14F
330
1F
100
AcDbEntity
  8
0
  6
Continuous
 62
     8
370
     0
100
AcDbLine
 10
-270.3496607676
 20
245.2412917826
 30
0.0
 11
-270.3496607676
 21
245.0418707762
 31
0.0
  0
LINE
  5
150
330
1F
100
AcDbEntity
  8
0
  6
Continuous
 62
     8
370
     0
100
AcDbLine
 10
-270.3496607676
 20
244.0769523482
 30
0.0
 11
-270.3496607676
 21
244.0412917826
 31
0.0
  0
LINE
  5
151
330
1F
100
AcDbEntity
  8
0
  6
Continuous
 62
     8
370
     0
100
AcDbLine
 10
-270.3496607676
 20
161.4412917826
 30
0.0
 11
-270.3496607676
 21
161.405631217
 31
0.0
  0
LINE
  5
152
330
1F
100
AcDbEntity
  8
0
  6
Continuous
 62
     8
370
     0
100
AcDbLine
 10
-270.3496607676
 20
160.4407127891
 30
0.0
 11
-270.3496607676
 21
160.2412917826
 31
0.0
  0
LINE
  5
153
330
1F
100
AcDbEntity
  8
0
  6
Continuous
 62
     8
370
     0
100
AcDbLine
 10
-278.5267831404
 20
245.2412917826
 30
0.0
 11
-278.5267831404
 21
160.2412917826
 31
0.0
  0
LINE
  5
154
330
1F
100
AcDbEntity
  8
0
  6
Continuous
 62
     8
370
     0
100
AcDbLine
 10
-280.4065711382
 20
245.2412917826
 30
0.0
 11
-280.4065711382
 21
160.2412917826
 31
0.0
  0
LINE
  5
155
330
1F
100
AcDbEntity
  8
0
  6
Continuous
 62
     8
370
     0
100
AcDbLine
 10
-271.559377798
 20
245.2412917826
 30
0.0
 11
-271.559377798
 21
160.2412917826
 31
0.0
  0
LINE
  5
156
330
1F
100
AcDbEntity
  8
0
  6
Continuous
 62
     8
370
     0
100
AcDbLine
 10
-290.2746131973
 20
245.2412917826
 30
0.0
 11
-290.2746131973
 21
160.2412917826
 31
0.0
  0
CIRCLE
  5
157
330
1F
100
AcDbEntity
  8
ASSI
100
AcDbCircle
 10
-308.9790774643
 20
314.0412917826
 30
0.0
 40
10.00000000000003
  0
CIRCLE
  5
158
330
1F
100
AcDbEntity
  8
ASSI
100
AcDbCircle
 10
-308.9790774643
 20
269.0412917826
 30
0.0
 40
10.00000000000003
  0
LINE
  5
15B
330
1F
100
AcDbEntity
  8
ASSI
100
AcDbLine
 10
-283.9790774643
 20
147.0556196717
 30
0.0
 11
-283.9790774643
 21
344.8891952075
 31
0.0
  0
LINE
  5
15C
330
1F
100
AcDbEntity
  8
0
100
AcDbLine
 10
-299.4790774643
 20
70.5823522977
 30
0.0
 11
-299.4790774643
 21
77.5823522977
 31
0.0
  0
LINE
  5
15D
330
1F
100
AcDbEntity
  8
0
100
AcDbLine
 10
-318.4790774643
 20
77.5823522977
 30
0.0
 11
-318.4790774643
 21
70.5823522977
 31
0.0
  0
LINE
  5
15E
330
1F
100
AcDbEntity
  8
0
100
AcDbLine
 10
-305.9790774643
 20
69.5823522977
 30
0.0
 11
-305.9790774643
 21
70.0823522977
 31
0.0
  0
LINE
  5
15F
330
1F
100
AcDbEntity
  8
0
100
AcDbLine
 10
-311.9790774643
 20
70.0823522977
 30
0.0
 11
-311.9790774643
 21
69.5823522977
 31
0.0
  0
LINE
  5
160
330
1F
100
AcDbEntity
  8
0
100
AcDbLine
 10
-301.0790774643
 20
70.0823522977
 30
0.0
 11
-301.0790774643
 21
70.5823522977
 31
0.0
  0
LINE
  5
161
330
1F
100
AcDbEntity
  8
0
100
AcDbLine
 10
-316.8790774643
 20
70.5823522977
 30
0.0
 11
-316.8790774643
 21
70.0823522977
 31
0.0
  0
LINE
  5
162
330
1F
100
AcDbEntity
  8
0
100
AcDbLine
 10
-277.4790774643
 20
88.716326894
 30
0.0
 11
-277.4790774643
 21
90.4483777015
 31
0.0
  0
LINE
  5
163
330
1F
100
AcDbEntity
  8
0
100
AcDbLine
 10
-275.9790774643
 20
87.8503014902
 30
0.0
 11
-277.4790774643
 21
88.716326894
 31
0.0
  0
LINE
  5
164
330
1F
100
AcDbEntity
  8
0
100
AcDbLine
 10
-274.4790774643
 20
88.716326894
 30
0.0
 11
-275.9790774643
 21
87.8503014902
 31
0.0
  0
LINE
  5
165
330
1F
100
AcDbEntity
  8
0
100
AcDbLine
 10
-274.4790774643
 20
90.4483777015
 30
0.0
 11
-274.4790774643
 21
88.716326894
 31
0.0
  0
LINE
  5
166
330
1F
100
AcDbEntity
  8
0
100
AcDbLine
 10
-275.9790774643
 20
91.3144031053
 30
0.0
 11
-274.4790774643
 21
90.4483777015
 31
0.0
  0
LINE
  5
167
330
1F
100
AcDbEntity
  8
0
100
AcDbLine
 10
-277.4790774643
 20
90.4483777015
 30
0.0
 11
-275.9790774643
 21
91.3144031053
 31
0.0
  0
CIRCLE
  5
168
330
1F
100
AcDbEntity
  8
0
100
AcDbCircle
 10
-275.9790774643
 20
89.5823522977
 30
0.0
 40
2.599999999999994
  0
CIRCLE
  5
169
330
1F
100
AcDbEntity
  8
0
100
AcDbCircle
 10
-275.9790774643
 20
89.5823522977
 30
0.0
 40
2.899999999999991
  0
ARC
  5
16A
330
1F
100
AcDbEntity
  8
0
100
AcDbCircle
 10
-275.9790774643
 20
89.5823522977
 30
0.0
 40
3.450000000000003
100
AcDbArc
 50
130.1460472009
 51
90.0
  0
LWPOLYLINE
  5
16B
330
1F
100
AcDbEntity
  8
0
100
AcDbPolyline
 90
        3
 70
   128
 43
0.0
 10
-276.8290774643
 20
92.9260029972
 10
-276.7467746864
 20
92.9458535948
 10
-275.9790774643
 20
93.0323522977
  0
ARC
  5
16C
330
1F
100
AcDbEntity
  8
0
100
AcDbCircle
 10
-275.9790774643
 20
89.5823522977
 30
0.0
 40
1.5
100
AcDbArc
 50
60.0
 51
120.0
  0
ARC
  5
16D
330
1F
100
AcDbEntity
  8
0
100
AcDbCircle
 10
-275.9790774643
 20
89.5823522977
 30
0.0
 40
1.5
100
AcDbArc
 50
0.0
 51
60.0
  0
ARC
  5
16E
330
1F
100
AcDbEntity
  8
0
100
AcDbCircle
 10
-275.9790774643
 20
89.5823522977
 30
0.0
 40
1.500000000000012
100
AcDbArc
 50
240.0
 51
300.0
  0
ARC
  5
16F
330
1F
100
AcDbEntity
  8
0
100
AcDbCircle
 10
-275.9790774643
 20
89.5823522977
 30
0.0
 40
1.500000000000012
100
AcDbArc
 50
300.0
 51
0.0
  0
ARC
  5
170
330
1F
100
AcDbEntity
  8
0
100
AcDbCircle
 10
-275.9790774643
 20
89.5823522977
 30
0.0
 40
1.5
100
AcDbArc
 50
120.0
 51
180.0
  0
ARC
  5
171
330
1F
100
AcDbEntity
  8
0
100
AcDbCircle
 10
-275.9790774643
 20
89.5823522977
 30
0.0
 40
1.500000000000012
100
AcDbArc
 50
180.0
 51
240.0
  0
LINE
  5
172
330
1F
100
AcDbEntity
  8
0
100
AcDbLine
 10
-299.4790774643
 20
70.5823522977
 30
0.0
 11
-318.4790774643
 21
70.5823522977
 31
0.0
  0
LINE
  5
173
330
1F
100
AcDbEntity
  8
0
100
AcDbLine
 10
-327.7790774643
 20
69.2823522977
 30
0.0
 11
-290.1790774643
 21
69.2823522977
 31
0.0
  0
LINE
  5
174
330
1F
100
AcDbEntity
  8
0
100
AcDbLine
 10
-327.7790774643
 20
64.0823522977
 30
0.0
 11
-327.7790774643
 21
69.2823522977
 31
0.0
  0
LINE
  5
175
330
1F
100
AcDbEntity
  8
0
100
AcDbLine
 10
-290.1790774643
 20
64.0823522977
 30
0.0
 11
-290.1790774643
 21
69.2823522977
 31
0.0
  0
ARC
  5
176
330
1F
100
AcDbEntity
  8
0
100
AcDbCircle
 10
-290.9790774643
 20
64.0823522977
 30
0.0
 40
2.000000000000007
100
AcDbArc
 50
270.0
 51
293.5781784782001
  0
LINE
  5
177
330
1F
100
AcDbEntity
  8
0
100
AcDbLine
 10
-290.9790774643
 20
62.0823522977
 30
0.0
 11
-326.9790774643
 21
62.0823522977
 31
0.0
  0
ARC
  5
178
330
1F
100
AcDbEntity
  8
0
100
AcDbCircle
 10
-326.9790774643
 20
64.0823522977
 30
0.0
 40
2.000000000000007
100
AcDbArc
 50
246.4218215218
 51
270.0
  0
LINE
  5
179
330
1F
100
AcDbEntity
  8
0
100
AcDbLine
 10
-327.7790774643
 20
62.2493220198
 30
0.0
 11
-327.7790774643
 21
64.0823522977
 31
0.0
  0
LINE
  5
17A
330
1F
100
AcDbEntity
  8
0
100
AcDbLine
 10
-290.1790774643
 20
64.0823522977
 30
0.0
 11
-290.1790774643
 21
62.2493220198
 31
0.0
  0
LINE
  5
17B
330
1F
100
AcDbEntity
  8
0
100
AcDbLine
 10
-289.9790774643
 20
69.2823522977
 30
0.0
 11
-289.9790774643
 21
63.5823522977
 31
0.0
  0
LINE
  5
17C
330
1F
100
AcDbEntity
  8
0
100
AcDbLine
 10
-288.9790774643
 20
69.2823522977
 30
0.0
 11
-289.9790774643
 21
69.2823522977
 31
0.0
  0
LINE
  5
17D
330
1F
100
AcDbEntity
  8
0
100
AcDbLine
 10
-288.9790774643
 20
64.0823522977
 30
0.0
 11
-288.9790774643
 21
69.2823522977
 31
0.0
  0
ARC
  5
17E
330
1F
100
AcDbEntity
  8
0
100
AcDbCircle
 10
-290.9790774643
 20
64.0823522977
 30
0.0
 40
2.0
100
AcDbArc
 50
293.5781784782001
 51
0.0
  0
ARC
  5
17F
330
1F
100
AcDbEntity
  8
0
100
AcDbCircle
 10
-290.4790774643
 20
63.5823522977
 30
0.0
 40
0.5000000000000057
100
AcDbArc
 50
306.8698976458
 51
0.0
  0
LINE
  5
180
330
1F
100
AcDbEntity
  8
0
100
AcDbLine
 10
-328.9790774643
 20
64.0823522977
 30
0.0
 11
-328.9790774643
 21
69.2823522977
 31
0.0
  0
LINE
  5
181
330
1F
100
AcDbEntity
  8
0
100
AcDbLine
 10
-327.9790774643
 20
69.2823522977
 30
0.0
 11
-328.9790774643
 21
69.2823522977
 31
0.0
  0
ARC
  5
182
330
1F
100
AcDbEntity
  8
0
100
AcDbCircle
 10
-327.4790774643
 20
63.5823522977
 30
0.0
 40
0.5000000000000057
100
AcDbArc
 50
180.0
 51
233.1301023542
  0
LINE
  5
183
330
1F
100
AcDbEntity
  8
0
100
AcDbLine
 10
-327.9790774643
 20
63.5823522977
 30
0.0
 11
-327.9790774643
 21
69.2823522977
 31
0.0
  0
ARC
  5
184
330
1F
100
AcDbEntity
  8
0
100
AcDbCircle
 10
-326.9790774643
 20
64.0823522977
 30
0.0
 40
2.000000000000007
100
AcDbArc
 50
180.0
 51
246.4218215218
  0
LINE
  5
185
330
1F
100
AcDbEntity
  8
0
100
AcDbLine
 10
-327.4790774643
 20
69.5823522977
 30
0.0
 11
-327.4790774643
 21
69.2823522977
 31
0.0
  0
LINE
  5
186
330
1F
100
AcDbEntity
  8
0
100
AcDbLine
 10
-327.4790774643
 20
69.5823522977
 30
0.0
 11
-325.4790774643
 21
69.5823522977
 31
0.0
  0
LINE
  5
187
330
1F
100
AcDbEntity
  8
0
100
AcDbLine
 10
-325.4790774643
 20
69.5823522977
 30
0.0
 11
-292.4790774643
 21
69.5823522977
 31
0.0
  0
LINE
  5
188
330
1F
100
AcDbEntity
  8
0
100
AcDbLine
 10
-290.4790774643
 20
69.5823522977
 30
0.0
 11
-290.4790774643
 21
69.2823522977
 31
0.0
  0
LINE
  5
189
330
1F
100
AcDbEntity
  8
0
100
AcDbLine
 10
-292.4790774643
 20
69.5823522977
 30
0.0
 11
-290.4790774643
 21
69.5823522977
 31
0.0
  0
LINE
  5
18A
330
1F
100
AcDbEntity
  8
0
100
AcDbLine
 10
-328.9790774643
 20
78.0823522977
 30
0.0
 11
-328.9790774643
 21
77.5823522977
 31
0.0
  0
LINE
  5
18B
330
1F
100
AcDbEntity
  8
0
100
AcDbLine
 10
-328.9790774643
 20
77.5823522977
 30
0.0
 11
-326.9790774643
 21
77.5823522977
 31
0.0
  0
LINE
  5
18C
330
1F
100
AcDbEntity
  8
0
100
AcDbLine
 10
-288.9790774643
 20
78.0823522977
 30
0.0
 11
-288.9790774643
 21
77.5823522977
 31
0.0
  0
LINE
  5
18D
330
1F
100
AcDbEntity
  8
0
100
AcDbLine
 10
-290.9790774643
 20
77.5823522977
 30
0.0
 11
-288.9790774643
 21
77.5823522977
 31
0.0
  0
LINE
  5
18E
330
1F
100
AcDbEntity
  8
0
100
AcDbLine
 10
-326.9790774643
 20
77.5823522977
 30
0.0
 11
-290.9790774643
 21
77.5823522977
 31
0.0
  0
CIRCLE
  5
18F
330
1F
100
AcDbEntity
  8
0
100
AcDbCircle
 10
-283.9790774643
 20
105.0823522977
 30
0.0
 40
14.0
  0
ARC
  5
190
330
1F
100
AcDbEntity
  8
0
100
AcDbCircle
 10
-269.4790774643
 20
56.8823522977
 30
0.0
 40
2.000000000000057
100
AcDbArc
 50
180.0
 51
203.5781784782
  0
LINE
  5
191
330
1F
100
AcDbEntity
  8
0
100
AcDbLine
 10
-271.4790774643
 20
56.8823522977
 30
0.0
 11
-271.4790774643
 21
80.3823522977
 31
0.0
  0
LINE
  5
192
330
1F
100
AcDbEntity
  8
0
100
AcDbLine
 10
-269.4790774643
 20
56.0823522977
 30
0.0
 11
-271.3121077422
 21
56.0823522977
 31
0.0
  0
LINE
  5
193
330
1F
100
AcDbEntity
  8
0
100
AcDbLine
 10
-271.4790774643
 20
80.3823522977
 30
0.0
 11
-269.4790774643
 21
80.3823522977
 31
0.0
  0
LINE
  5
194
330
1F
100
AcDbEntity
  8
0
100
AcDbLine
 10
-265.7790774643
 20
56.0823522977
 30
0.0
 11
-265.7790774643
 21
80.3823522977
 31
0.0
  0
LINE
  5
195
330
1F
100
AcDbEntity
  8
0
100
AcDbLine
 10
-269.4790774643
 20
56.0823522977
 30
0.0
 11
-265.7790774643
 21
56.0823522977
 31
0.0
  0
LINE
  5
196
330
1F
100
AcDbEntity
  8
0
100
AcDbLine
 10
-269.4790774643
 20
80.3823522977
 30
0.0
 11
-265.7790774643
 21
80.3823522977
 31
0.0
  0
LINE
  5
197
330
1F
100
AcDbEntity
  8
0
100
AcDbLine
 10
-269.9790774643
 20
55.8823522977
 30
0.0
 11
-265.7790774643
 21
55.8823522977
 31
0.0
  0
LINE
  5
198
330
1F
100
AcDbEntity
  8
0
100
AcDbLine
 10
-265.7790774643
 20
54.8823522977
 30
0.0
 11
-265.7790774643
 21
55.8823522977
 31
0.0
  0
LINE
  5
199
330
1F
100
AcDbEntity
  8
0
100
AcDbLine
 10
-269.4790774643
 20
54.8823522977
 30
0.0
 11
-265.7790774643
 21
54.8823522977
 31
0.0
  0
ARC
  5
19A
330
1F
100
AcDbEntity
  8
0
100
AcDbCircle
 10
-269.4790774643
 20
56.8823522977
 30
0.0
 40
2.000000000000057
100
AcDbArc
 50
203.5781784782
 51
270.0
  0
ARC
  5
19B
330
1F
100
AcDbEntity
  8
0
100
AcDbCircle
 10
-269.9790774643
 20
56.3823522977
 30
0.0
 40
0.5000000000000213
100
AcDbArc
 50
216.8698976458
 51
270.0
  0
LINE
  5
19C
330
1F
100
AcDbEntity
  8
0
100
AcDbLine
 10
-289.9790774643
 20
68.0823522977
 30
0.0
 11
-290.1790774643
 21
68.0823522977
 31
0.0
  0
LINE
  5
19D
330
1F
100
AcDbEntity
  8
0
100
AcDbLine
 10
-289.9790774643
 20
68.0823522977
 30
0.0
 11
-290.1790774643
 21
68.2823522977
 31
0.0
  0
ARC
  5
19E
330
1F
100
AcDbEntity
  8
0
100
AcDbCircle
 10
-291.9790774643
 20
65.0823522977
 30
0.0
 40
2.000000000000021
100
AcDbArc
 50
334.1580672368
 51
0.0
  0
ARC
  5
19F
330
1F
100
AcDbEntity
  8
0
100
AcDbCircle
 10
-325.9790774643
 20
65.0823522977
 30
0.0
 40
2.000000000000029
100
AcDbArc
 50
180.0
 51
205.8419327631
  0
LINE
  5
1A0
330
1F
100
AcDbEntity
  8
0
100
AcDbLine
 10
-327.7790774643
 20
68.0823522977
 30
0.0
 11
-327.9790774643
 21
68.0823522977
 31
0.0
  0
LINE
  5
1A1
330
1F
100
AcDbEntity
  8
0
100
AcDbLine
 10
-327.9790774643
 20
68.0823522977
 30
0.0
 11
-327.7790774643
 21
68.2823522977
 31
0.0
  0
LINE
  5
1A2
330
1F
100
AcDbEntity
  8
0
100
AcDbLine
 10
-329.9790774643
 20
80.8197810447
 30
0.0
 11
-329.9790774643
 21
78.0823522977
 31
0.0
  0
ARC
  5
1A3
330
1F
100
AcDbEntity
  8
0
100
AcDbCircle
 10
-327.9790774643
 20
80.8197810447
 30
0.0
 40
2.000000000000002
100
AcDbArc
 50
104.0
 51
180.0
  0
LINE
  5
1A4
330
1F
100
AcDbEntity
  8
0
100
AcDbLine
 10
-300.8701767864
 20
89.6400163687
 30
0.0
 11
-328.4629212555
 21
82.7603724973
 31
0.0
  0
ARC
  5
1A5
330
1F
100
AcDbEntity
  8
0
100
AcDbCircle
 10
-302.4426691078
 20
95.9469385895
 30
0.0
 40
6.500000000000028
100
AcDbArc
 50
284.0
 51
26.3252793687
  0
ARC
  5
1A6
330
1F
100
AcDbEntity
  8
0
100
AcDbCircle
 10
-283.9790774643
 20
105.0823522977
 30
0.0
 40
14.10000000000001
100
AcDbArc
 50
288.5499170797
 51
206.3252793687
  0
ARC
  5
1A7
330
1F
100
AcDbEntity
  8
0
100
AcDbCircle
 10
-275.6758653605
 20
80.3383294081
 30
0.0
 40
12.00000000000002
100
AcDbArc
 50
108.5499170797
 51
174.0
  0
LINE
  5
1A8
330
1F
100
AcDbEntity
  8
0
100
AcDbLine
 10
-287.9320185387
 20
78.5300880661
 30
0.0
 11
-287.6101281049
 21
81.5926709674
 31
0.0
  0
ARC
  5
1A9
330
1F
100
AcDbEntity
  8
0
100
AcDbCircle
 10
-288.4292794864
 20
78.5823522977
 30
0.0
 40
0.5000000000000613
100
AcDbArc
 50
270.0
 51
354.0
  0
LINE
  5
1AA
330
1F
100
AcDbEntity
  8
0
100
AcDbLine
 10
-329.9790774643
 20
78.0823522977
 30
0.0
 11
-288.4292794864
 21
78.0823522977
 31
0.0
  0
LINE
  5
1AB
330
1F
100
AcDbEntity
  8
0
100
AcDbLine
 10
-301.0790774643
 20
70.0823522977
 30
0.0
 11
-316.8790774643
 21
70.0823522977
 31
0.0
  0
ARC
  5
1AC
330
1F
100
AcDbEntity
  8
0
100
AcDbCircle
 10
-275.9790774643
 20
89.5823522977
 30
0.0
 40
3.933012701892238
100
AcDbArc
 50
270.0
 51
89.08998902199998
  0
ARC
  5
1AD
330
1F
100
AcDbEntity
  8
0
100
AcDbCircle
 10
-275.9790774643
 20
89.5823522977
 30
0.0
 40
3.933012701892238
100
AcDbArc
 50
145.5091554006
 51
270.0
  0
ARC
  5
1AE
330
1F
100
AcDbEntity
  8
0
100
AcDbCircle
 10
-270.5790774643
 20
80.0823522977
 30
0.0
 40
0.3500000000000113
100
AcDbArc
 50
0.0
 51
49.044226387
  0
ARC
  5
1AF
330
1F
100
AcDbEntity
  8
0
100
AcDbCircle
 10
-270.980743206
 20
79.6195677374
 30
0.0
 40
0.9627845603671251
100
AcDbArc
 50
49.044226387
 51
126.9416307552
  0
ARC
  5
1B0
330
1F
100
AcDbEntity
  8
0
100
AcDbCircle
 10
-271.3790774643
 20
80.1492970949
 30
0.0
 40
0.3000000000000114
100
AcDbArc
 50
126.9416307552
 51
180.0
  0
LINE
  5
1B1
330
1F
100
AcDbEntity
  8
0
100
AcDbLine
 10
-271.6790774643
 20
80.1492970949
 30
0.0
 11
-271.6790774643
 21
80.0823522977
 31
0.0
  0
LINE
  5
1B2
330
1F
100
AcDbEntity
  8
0
100
AcDbLine
 10
-278.5267831404
 20
80.0823522977
 30
0.0
 11
-271.6790774643
 21
80.0823522977
 31
0.0
  0
ARC
  5
1B3
330
1F
100
AcDbEntity
  8
0
100
AcDbCircle
 10
-278.5267831404
 20
82.0823522977
 30
0.0
 40
2.0
100
AcDbArc
 50
199.9662374702
 51
270.0
  0
ARC
  5
1B4
330
1F
100
AcDbEntity
  8
0
100
AcDbCircle
 10
-299.2044511165
 20
74.5700925134
 30
0.0
 40
20.00000000000001
100
AcDbArc
 50
19.9662374702
 51
43.33719172499999
  0
ARC
  5
1B5
330
1F
100
AcDbEntity
  8
0
100
AcDbCircle
 10
-260.315082247
 20
109.6458301775
 30
0.0
 40
10.00000000000001
100
AcDbArc
 50
190.9151993239
 51
233.3446891941
  0
ARC
  5
1B6
330
1F
100
AcDbEntity
  8
0
100
AcDbCircle
 10
-267.4790774643
 20
100.0189317918
 30
0.0
 40
2.0
100
AcDbArc
 50
0.0
 51
53.3446891941
  0
LINE
  5
1B7
330
1F
100
AcDbEntity
  8
0
100
AcDbLine
 10
-265.4790774643
 20
100.0189317918
 30
0.0
 11
-265.4790774643
 21
91.0823522977
 31
0.0
  0
LINE
  5
1B8
330
1F
100
AcDbEntity
  8
0
100
AcDbLine
 10
-265.4790774643
 20
91.0823522977
 30
0.0
 11
-265.6790774643
 21
91.0823522977
 31
0.0
  0
LINE
  5
1B9
330
1F
100
AcDbEntity
  8
0
100
AcDbLine
 10
-265.6790774643
 20
91.0823522977
 30
0.0
 11
-265.6790774643
 21
80.0823522977
 31
0.0
  0
LINE
  5
1BA
330
1F
100
AcDbEntity
  8
0
100
AcDbLine
 10
-265.6790774643
 20
80.0823522977
 30
0.0
 11
-270.2290774643
 21
80.0823522977
 31
0.0
  0
ARC
  5
1BB
330
1F
100
AcDbEntity
  8
0
100
AcDbCircle
 10
-275.9790774643
 20
89.5823522977
 30
0.0
 40
3.500000000000014
100
AcDbArc
 50
270.0
 51
101.85472208
  0
ARC
  5
1BC
330
1F
100
AcDbEntity
  8
0
100
AcDbCircle
 10
-275.9790774643
 20
89.5823522977
 30
0.0
 40
3.500000000000014
100
AcDbArc
 50
132.7444223427
 51
270.0
  0
LINE
  5
1BD
330
1F
100
AcDbEntity
  8
0
100
AcDbLine
 10
-265.4790774643
 20
64.0823522977
 30
0.0
 11
-265.6790774643
 21
64.0823522977
 31
0.0
  0
LINE
  5
1BE
330
1F
100
AcDbEntity
  8
0
100
AcDbLine
 10
-265.4790774643
 20
64.0823522977
 30
0.0
 11
-265.4790774643
 21
56.0823522977
 31
0.0
  0
LINE
  5
1BF
330
1F
100
AcDbEntity
  8
0
100
AcDbLine
 10
-265.7790774643
 20
56.0823522977
 30
0.0
 11
-265.4790774643
 21
56.0823522977
 31
0.0
  0
LINE
  5
1C0
330
1F
100
AcDbEntity
  8
0
100
AcDbLine
 10
-265.6790774643
 20
64.0823522977
 30
0.0
 11
-265.6790774643
 21
80.0823522977
 31
0.0
  0
LINE
  5
1C1
330
1F
100
AcDbEntity
  8
0
  6
Continuous
 62
     8
370
     0
100
AcDbLine
 10
-327.7790774643
 20
64.0823522977
 30
0.0
 11
-290.1790774643
 21
64.0823522977
 31
0.0
  0
LINE
  5
1C2
330
1F
100
AcDbEntity
  8
0
  6
Continuous
 62
     8
370
     0
100
AcDbLine
 10
-325.4790774643
 20
69.5823522977
 30
0.0
 11
-325.4790774643
 21
69.2823522977
 31
0.0
  0
LINE
  5
1C3
330
1F
100
AcDbEntity
  8
0
  6
Continuous
 62
     8
370
     0
100
AcDbLine
 10
-292.4790774643
 20
69.5823522977
 30
0.0
 11
-292.4790774643
 21
69.2823522977
 31
0.0
  0
LINE
  5
1C4
330
1F
100
AcDbEntity
  8
0
  6
Continuous
 62
     8
370
     0
100
AcDbLine
 10
-326.9790774643
 20
78.0823522977
 30
0.0
 11
-326.9790774643
 21
77.5823522977
 31
0.0
  0
LINE
  5
1C5
330
1F
100
AcDbEntity
  8
0
  6
Continuous
 62
     8
370
     0
100
AcDbLine
 10
-290.9790774643
 20
78.0823522977
 30
0.0
 11
-290.9790774643
 21
77.5823522977
 31
0.0
  0
LINE
  5
1C6
330
1F
100
AcDbEntity
  8
0
  6
Continuous
 62
     8
370
     0
100
AcDbLine
 10
-269.4790774643
 20
56.0823522977
 30
0.0
 11
-269.4790774643
 21
80.3823522977
 31
0.0
  0
LINE
  5
1C7
330
1F
100
AcDbEntity
  8
0
  6
Continuous
 62
     8
370
     0
100
AcDbLine
 10
-290.1790774643
 20
65.0823522977
 30
0.0
 11
-289.9790774643
 21
65.0823522977
 31
0.0
  0
LINE
  5
1C8
330
1F
100
AcDbEntity
  8
0
  6
Continuous
 62
     8
370
     0
100
AcDbLine
 10
-327.9790774643
 20
65.0823522977
 30
0.0
 11
-327.7790774643
 21
65.0823522977
 31
0.0
  0
LINE
  5
1C9
330
1F
100
AcDbEntity
  8
0
100
AcDbLine
 10
-167.7040911261
 20
278.5412917826
 30
0.0
 11
-174.7040911261
 21
278.5412917826
 31
0.0
  0
LINE
  5
1CA
330
1F
100
AcDbEntity
  8
0
100
AcDbLine
 10
-174.7040911261
 20
259.5412917826
 30
0.0
 11
-167.7040911261
 21
259.5412917826
 31
0.0
  0
LINE
  5
1CB
330
1F
100
AcDbEntity
  8
0
100
AcDbLine
 10
-167.7040911261
 20
323.5412917826
 30
0.0
 11
-174.7040911261
 21
323.5412917826
 31
0.0
  0
LINE
  5
1CC
330
1F
100
AcDbEntity
  8
0
100
AcDbLine
 10
-174.7040911261
 20
304.5412917826
 30
0.0
 11
-167.7040911261
 21
304.5412917826
 31
0.0
  0
LINE
  5
1CD
330
1F
100
AcDbEntity
  8
0
100
AcDbLine
 10
-166.7040911261
 20
272.0412917826
 30
0.0
 11
-167.2040911261
 21
272.0412917826
 31
0.0
  0
LINE
  5
1CE
330
1F
100
AcDbEntity
  8
0
100
AcDbLine
 10
-167.2040911261
 20
266.0412917826
 30
0.0
 11
-166.7040911261
 21
266.0412917826
 31
0.0
  0
LINE
  5
1CF
330
1F
100
AcDbEntity
  8
0
100
AcDbLine
 10
-166.7040911261
 20
317.0412917826
 30
0.0
 11
-167.2040911261
 21
317.0412917826
 31
0.0
  0
LINE
  5
1D0
330
1F
100
AcDbEntity
  8
0
100
AcDbLine
 10
-167.2040911261
 20
311.0412917826
 30
0.0
 11
-166.7040911261
 21
311.0412917826
 31
0.0
  0
LINE
  5
1D1
330
1F
100
AcDbEntity
  8
0
100
AcDbLine
 10
-216.2040911261
 20
336.0412917826
 30
0.0
 11
-216.2040911261
 21
334.0412917826
 31
0.0
  0
LINE
  5
1D2
330
1F
100
AcDbEntity
  8
0
100
AcDbLine
 10
-188.2040911261
 20
334.0412917826
 30
0.0
 11
-188.2040911261
 21
336.0412917826
 31
0.0
  0
ARC
  5
1D3
330
1F
100
AcDbEntity
  8
0
100
AcDbCircle
 10
-202.2040911261
 20
304.874625116
 30
0.0
 40
34.16666666666669
100
AcDbArc
 50
65.810485846
 51
114.189514154
  0
LINE
  5
1D4
330
1F
100
AcDbEntity
  8
0
100
AcDbLine
 10
-188.2040911261
 20
158.2412917826
 30
0.0
 11
-188.2040911261
 21
160.2412917826
 31
0.0
  0
LINE
  5
1D5
330
1F
100
AcDbEntity
  8
0
100
AcDbLine
 10
-216.2040911261
 20
160.2412917826
 30
0.0
 11
-216.2040911261
 21
158.2412917826
 31
0.0
  0
ARC
  5
1D6
330
1F
100
AcDbEntity
  8
0
100
AcDbCircle
 10
-202.2040911261
 20
189.4079584493
 30
0.0
 40
34.1666666666668
100
AcDbArc
 50
275.0502407097001
 51
294.189514154
  0
ARC
  5
1D7
330
1F
100
AcDbEntity
  8
0
100
AcDbCircle
 10
-202.2040911261
 20
189.4079584493
 30
0.0
 40
34.1666666666668
100
AcDbArc
 50
245.810485846
 51
264.9497592903
  0
LINE
  5
1D8
330
1F
100
AcDbEntity
  8
0
100
AcDbLine
 10
-216.2040911261
 20
249.0412917826
 30
0.0
 11
-216.2040911261
 21
245.2412917826
 31
0.0
  0
LINE
  5
1D9
330
1F
100
AcDbEntity
  8
0
100
AcDbLine
 10
-188.2040911261
 20
245.2412917826
 30
0.0
 11
-188.2040911261
 21
249.0412917826
 31
0.0
  0
LINE
  5
1DA
330
1F
100
AcDbEntity
  8
0
100
AcDbLine
 10
-167.2040911261
 20
276.9412917826
 30
0.0
 11
-167.7040911261
 21
276.9412917826
 31
0.0
  0
LINE
  5
1DB
330
1F
100
AcDbEntity
  8
0
100
AcDbLine
 10
-167.7040911261
 20
261.1412917826
 30
0.0
 11
-167.2040911261
 21
261.1412917826
 31
0.0
  0
LINE
  5
1DC
330
1F
100
AcDbEntity
  8
0
100
AcDbLine
 10
-167.2040911261
 20
321.9412917826
 30
0.0
 11
-167.7040911261
 21
321.9412917826
 31
0.0
  0
LINE
  5
1DD
330
1F
100
AcDbEntity
  8
0
100
AcDbLine
 10
-167.7040911261
 20
306.1412917826
 30
0.0
 11
-167.2040911261
 21
306.1412917826
 31
0.0
  0
LINE
  5
1DE
330
1F
100
AcDbEntity
  8
0
100
AcDbLine
 10
-216.3040911261
 20
334.0412917826
 30
0.0
 11
-216.3040911261
 21
249.0412917826
 31
0.0
  0
LINE
  5
1DF
330
1F
100
AcDbEntity
  8
0
100
AcDbLine
 10
-216.3040911261
 20
245.2412917826
 30
0.0
 11
-216.3040911261
 21
160.2412917826
 31
0.0
  0
LINE
  5
1E0
330
1F
100
AcDbEntity
  8
0
100
AcDbLine
 10
-167.7040911261
 20
265.402326206
 30
0.0
 11
-167.7040911261
 21
259.5412917826
 31
0.0
  0
LINE
  5
1E1
330
1F
100
AcDbEntity
  8
0
100
AcDbLine
 10
-167.7040911261
 20
278.5412917826
 30
0.0
 11
-167.7040911261
 21
265.402326206
 31
0.0
  0
LINE
  5
1E2
330
1F
100
AcDbEntity
  8
0
100
AcDbLine
 10
-167.7040911261
 20
310.402326206
 30
0.0
 11
-167.7040911261
 21
304.5412917826
 31
0.0
  0
LINE
  5
1E3
330
1F
100
AcDbEntity
  8
0
100
AcDbLine
 10
-167.7040911261
 20
323.5412917826
 30
0.0
 11
-167.7040911261
 21
310.402326206
 31
0.0
  0
LINE
  5
1E4
330
1F
100
AcDbEntity
  8
0
100
AcDbLine
 10
-161.2040911261
 20
333.0912917826
 30
0.0
 11
-159.3710608481
 21
333.0912917826
 31
0.0
  0
ARC
  5
1E5
330
1F
100
AcDbEntity
  8
0
100
AcDbCircle
 10
-161.2040911261
 20
332.2912917826
 30
0.0
 40
2.0
100
AcDbArc
 50
0.0
 51
23.5781784782
  0
LINE
  5
1E6
330
1F
100
AcDbEntity
  8
0
100
AcDbLine
 10
-159.2040911261
 20
332.2912917826
 30
0.0
 11
-159.2040911261
 21
250.7912917826
 31
0.0
  0
ARC
  5
1E7
330
1F
100
AcDbEntity
  8
0
100
AcDbCircle
 10
-161.2040911261
 20
250.7912917826
 30
0.0
 40
1.99999999999999
100
AcDbArc
 50
336.4218215217999
 51
0.0
  0
LINE
  5
1E8
330
1F
100
AcDbEntity
  8
0
100
AcDbLine
 10
-159.3710608481
 20
249.9912917826
 30
0.0
 11
-161.2040911261
 21
249.9912917826
 31
0.0
  0
LINE
  5
1E9
330
1F
100
AcDbEntity
  8
0
100
AcDbLine
 10
-161.2040911261
 20
249.9912917826
 30
0.0
 11
-166.4040911261
 21
249.9912917826
 31
0.0
  0
LINE
  5
1EA
330
1F
100
AcDbEntity
  8
0
100
AcDbLine
 10
-166.4040911261
 20
249.9912917826
 30
0.0
 11
-166.4040911261
 21
333.0912917826
 31
0.0
  0
LINE
  5
1EB
330
1F
100
AcDbEntity
  8
0
100
AcDbLine
 10
-161.2040911261
 20
333.0912917826
 30
0.0
 11
-166.4040911261
 21
333.0912917826
 31
0.0
  0
ARC
  5
1EC
330
1F
100
AcDbEntity
  8
0
100
AcDbCircle
 10
-160.7040911261
 20
332.7912917826
 30
0.0
 40
0.5000000000000568
100
AcDbArc
 50
36.8698976458
 51
90.0
  0
LINE
  5
1ED
330
1F
100
AcDbEntity
  8
0
100
AcDbLine
 10
-166.4040911261
 20
333.2912917826
 30
0.0
 11
-160.7040911261
 21
333.2912917826
 31
0.0
  0
LINE
  5
1EE
330
1F
100
AcDbEntity
  8
0
100
AcDbLine
 10
-166.4040911261
 20
334.2912917826
 30
0.0
 11
-166.4040911261
 21
333.2912917826
 31
0.0
  0
LINE
  5
1EF
330
1F
100
AcDbEntity
  8
0
100
AcDbLine
 10
-161.2040911261
 20
334.2912917826
 30
0.0
 11
-166.4040911261
 21
334.2912917826
 31
0.0
  0
ARC
  5
1F0
330
1F
100
AcDbEntity
  8
0
100
AcDbCircle
 10
-161.2040911261
 20
332.2912917826
 30
0.0
 40
2.0
100
AcDbArc
 50
23.5781784782
 51
90.0
  0
LINE
  5
1F1
330
1F
100
AcDbEntity
  8
0
100
AcDbLine
 10
-161.2040911261
 20
248.7912917826
 30
0.0
 11
-166.4040911261
 21
248.7912917826
 31
0.0
  0
LINE
  5
1F2
330
1F
100
AcDbEntity
  8
0
100
AcDbLine
 10
-166.4040911261
 20
249.7912917826
 30
0.0
 11
-166.4040911261
 21
248.7912917826
 31
0.0
  0
LINE
  5
1F3
330
1F
100
AcDbEntity
  8
0
100
AcDbLine
 10
-160.7040911261
 20
249.7912917826
 30
0.0
 11
-166.4040911261
 21
249.7912917826
 31
0.0
  0
ARC
  5
1F4
330
1F
100
AcDbEntity
  8
0
100
AcDbCircle
 10
-160.7040911261
 20
250.2912917826
 30
0.0
 40
0.5
100
AcDbArc
 50
270.0
 51
323.1301023542
  0
ARC
  5
1F5
330
1F
100
AcDbEntity
  8
0
100
AcDbCircle
 10
-161.2040911261
 20
250.7912917826
 30
0.0
 40
2.0
100
AcDbArc
 50
270.0
 51
336.4218215217999
  0
LINE
  5
1F6
330
1F
100
AcDbEntity
  8
0
100
AcDbLine
 10
-166.7040911261
 20
253.5412917826
 30
0.0
 11
-166.7040911261
 21
329.5412917826
 31
0.0
  0
LINE
  5
1F7
330
1F
100
AcDbEntity
  8
0
100
AcDbLine
 10
-166.7040911261
 20
329.5412917826
 30
0.0
 11
-166.7040911261
 21
331.5412917826
 31
0.0
  0
LINE
  5
1F8
330
1F
100
AcDbEntity
  8
0
100
AcDbLine
 10
-166.7040911261
 20
331.5412917826
 30
0.0
 11
-166.4040911261
 21
331.5412917826
 31
0.0
  0
LINE
  5
1F9
330
1F
100
AcDbEntity
  8
0
100
AcDbLine
 10
-166.7040911261
 20
251.5412917826
 30
0.0
 11
-166.4040911261
 21
251.5412917826
 31
0.0
  0
LINE
  5
1FA
330
1F
100
AcDbEntity
  8
0
100
AcDbLine
 10
-166.7040911261
 20
251.5412917826
 30
0.0
 11
-166.7040911261
 21
253.5412917826
 31
0.0
  0
LINE
  5
1FB
330
1F
100
AcDbEntity
  8
0
100
AcDbLine
 10
-175.2040911261
 20
333.0412917826
 30
0.0
 11
-174.7040911261
 21
333.0412917826
 31
0.0
  0
LINE
  5
1FC
330
1F
100
AcDbEntity
  8
0
100
AcDbLine
 10
-174.7040911261
 20
331.0412917826
 30
0.0
 11
-174.7040911261
 21
333.0412917826
 31
0.0
  0
LINE
  5
1FD
330
1F
100
AcDbEntity
  8
0
100
AcDbLine
 10
-174.7040911261
 20
252.0412917826
 30
0.0
 11
-174.7040911261
 21
331.0412917826
 31
0.0
  0
LINE
  5
1FE
330
1F
100
AcDbEntity
  8
0
100
AcDbLine
 10
-175.2040911261
 20
250.0412917826
 30
0.0
 11
-174.7040911261
 21
250.0412917826
 31
0.0
  0
LINE
  5
1FF
330
1F
100
AcDbEntity
  8
0
100
AcDbLine
 10
-174.7040911261
 20
250.0412917826
 30
0.0
 11
-174.7040911261
 21
252.0412917826
 31
0.0
  0
LINE
  5
200
330
1F
100
AcDbEntity
  8
0
100
AcDbLine
 10
-216.2040911261
 20
336.0412917826
 30
0.0
 11
-188.2040911261
 21
336.0412917826
 31
0.0
  0
LINE
  5
201
330
1F
100
AcDbEntity
  8
0
100
AcDbLine
 10
-203.2029991897
 20
158.2412917826
 30
0.0
 11
-216.2040911261
 21
158.2412917826
 31
0.0
  0
LINE
  5
202
330
1F
100
AcDbEntity
  8
0
100
AcDbLine
 10
-188.2040911261
 20
158.2412917826
 30
0.0
 11
-203.2029991897
 21
158.2412917826
 31
0.0
  0
ARC
  5
203
330
1F
100
AcDbEntity
  8
0
100
AcDbCircle
 10
-205.1972832427
 20
155.5691873401
 30
0.0
 40
0.1952415048191275
100
AcDbArc
 50
231.0471312242
 51
302.4693574539
  0
ARC
  5
204
330
1F
100
AcDbEntity
  8
0
100
AcDbCircle
 10
-203.5149336281
 20
182.9153443741
 30
0.0
 40
27.54209003509645
100
AcDbArc
 50
269.5985191719
 51
272.7279747755
  0
ARC
  5
205
330
1F
100
AcDbEntity
  8
0
100
AcDbCircle
 10
-200.5226110596
 20
178.7231902142
 30
0.0
 40
23.34993549867444
100
AcDbArc
 50
269.564087203
 51
272.9627888459
  0
ARC
  5
206
330
1F
100
AcDbEntity
  8
0
100
AcDbCircle
 10
-199.2082264596
 20
155.5800255424
 30
0.0
 40
0.2064326278294095
100
AcDbArc
 50
231.9996569851
 51
273.277169396
  0
ARC
  5
207
330
1F
100
AcDbEntity
  8
0
100
AcDbCircle
 10
-200.8932884106
 20
182.9152524302
 30
0.0
 40
27.54199736766369
100
AcDbArc
 50
266.7572182727
 51
273.2427817272999
  0
ARC
  5
208
330
1F
100
AcDbEntity
  8
0
100
AcDbCircle
 10
-203.8856423098
 20
178.7230389042
 30
0.0
 40
23.34978278413557
100
AcDbArc
 50
266.4780822205
 51
273.5219177795
  0
LINE
  5
209
330
1F
100
AcDbEntity
  8
0
100
AcDbLine
 10
-153.2040911261
 20
161.4412917826
 30
0.0
 11
-154.0040911261
 21
162.2412917826
 31
0.0
  0
LINE
  5
20A
330
1F
100
AcDbEntity
  8
0
100
AcDbLine
 10
-153.2040911261
 20
160.2412917826
 30
0.0
 11
-153.2040911261
 21
161.4412917826
 31
0.0
  0
LINE
  5
20B
330
1F
100
AcDbEntity
  8
0
100
AcDbLine
 10
-153.2040911261
 20
160.2412917826
 30
0.0
 11
-177.2040911261
 21
160.2412917826
 31
0.0
  0
LINE
  5
20C
330
1F
100
AcDbEntity
  8
0
100
AcDbLine
 10
-154.0040911261
 20
243.2412917826
 30
0.0
 11
-153.2040911261
 21
244.0412917826
 31
0.0
  0
LINE
  5
20D
330
1F
100
AcDbEntity
  8
0
100
AcDbLine
 10
-153.2040911261
 20
245.2412917826
 30
0.0
 11
-177.2040911261
 21
245.2412917826
 31
0.0
  0
LINE
  5
20E
330
1F
100
AcDbEntity
  8
0
100
AcDbLine
 10
-153.2040911261
 20
245.2412917826
 30
0.0
 11
-153.2040911261
 21
244.0412917826
 31
0.0
  0
LINE
  5
20F
330
1F
100
AcDbEntity
  8
0
100
AcDbLine
 10
-153.2040911261
 20
244.0412917826
 30
0.0
 11
-152.0040911261
 21
244.0412917826
 31
0.0
  0
LINE
  5
210
330
1F
100
AcDbEntity
  8
0
100
AcDbLine
 10
-152.0040911261
 20
244.0412917826
 30
0.0
 11
-152.0040911261
 21
161.4412917826
 31
0.0
  0
LINE
  5
211
330
1F
100
AcDbEntity
  8
0
100
AcDbLine
 10
-152.0040911261
 20
161.4412917826
 30
0.0
 11
-153.2040911261
 21
161.4412917826
 31
0.0
  0
LINE
  5
212
330
1F
100
AcDbEntity
  8
0
100
AcDbLine
 10
-179.8821113257
 20
334.0412917826
 30
0.0
 11
-177.9415198731
 21
334.0412917826
 31
0.0
  0
LINE
  5
213
330
1F
100
AcDbEntity
  8
0
100
AcDbLine
 10
-179.8821113257
 20
249.0412917826
 30
0.0
 11
-177.9415198731
 21
249.0412917826
 31
0.0
  0
LINE
  5
214
330
1F
100
AcDbEntity
  8
0
100
AcDbLine
 10
-175.2040911261
 20
334.0412917826
 30
0.0
 11
-175.2040911261
 21
249.0412917826
 31
0.0
  0
LINE
  5
215
330
1F
100
AcDbEntity
  8
0
100
AcDbLine
 10
-177.9415198731
 20
334.0412917826
 30
0.0
 11
-175.2040911261
 21
334.0412917826
 31
0.0
  0
LINE
  5
216
330
1F
100
AcDbEntity
  8
0
100
AcDbLine
 10
-177.9415198731
 20
249.0412917826
 30
0.0
 11
-175.2040911261
 21
249.0412917826
 31
0.0
  0
LINE
  5
217
330
1F
100
AcDbEntity
  8
0
100
AcDbLine
 10
-186.7617551971
 20
334.0412917826
 30
0.0
 11
-179.8821113257
 21
334.0412917826
 31
0.0
  0
LINE
  5
218
330
1F
100
AcDbEntity
  8
0
100
AcDbLine
 10
-186.7617551971
 20
249.0412917826
 30
0.0
 11
-179.8821113257
 21
249.0412917826
 31
0.0
  0
LINE
  5
219
330
1F
100
AcDbEntity
  8
0
100
AcDbLine
 10
-167.2040911261
 20
276.9412917826
 30
0.0
 11
-167.2040911261
 21
261.1412917826
 31
0.0
  0
LINE
  5
21A
330
1F
100
AcDbEntity
  8
0
100
AcDbLine
 10
-167.2040911261
 20
321.9412917826
 30
0.0
 11
-167.2040911261
 21
306.1412917826
 31
0.0
  0
SPLINE
  5
21B
330
1F
100
AcDbEntity
  8
0
100
AcDbSpline
210
0.0
220
0.0
230
1.0
 70
     8
 71
     3
 72
     9
 73
     5
 74
     0
 42
0.000000001
 43
0.00000001
 40
0.0
 40
0.0
 40
0.0
 40
0.0
 40
0.6813361370175066
 40
1.0
 40
1.0
 40
1.0
 40
1.0
 10
-195.9512108695174
 20
321.7989539229926
 30
0.0
 10
-195.9016688277358
 20
322.1386237518691
 30
0.0
 10
-195.8289557583857
 20
322.6371586312362
 30
0.0
 10
-195.9216671115695
 20
323.1274056374687
 30
0.0
 10
-195.9512108695175
 20
323.2836296422904
 30
0.0
  0
LINE
  5
21C
330
1F
100
AcDbEntity
  8
0
100
AcDbLine
 10
-195.9512108695
 20
334.0412917826
 30
0.0
 11
-186.7617551971
 21
334.0412917826
 31
0.0
  0
LINE
  5
21D
330
1F
100
AcDbEntity
  8
0
100
AcDbLine
 10
-195.9512108695
 20
249.0412917826
 30
0.0
 11
-186.7617551971
 21
249.0412917826
 31
0.0
  0
SPLINE
  5
21E
330
1F
100
AcDbEntity
  8
0
100
AcDbSpline
210
0.0
220
0.0
230
1.0
 70
     8
 71
     3
 72
    25
 73
    21
 74
     0
 42
0.000000001
 43
0.00000001
 40
0.0
 40
0.0
 40
0.0
 40
0.0
 40
0.0580378296639893
 40
0.1160425221834454
 40
0.1746799781403294
 40
0.2327081683428533
 40
0.2895667506840742
 40
0.3464716969166176
 40
0.4045443801976268
 40
0.4631769838892133
 40
0.5208210863481283
 40
0.5774645311410037
 40
0.6346520711223135
 40
0.6930697833394478
 40
0.7515150805320411
 40
0.8087638904227814
 40
0.8654586964636125
 40
0.9230326431149967
 40
0.98163008123825
 40
1.0
 40
1.0
 40
1.0
 40
1.0
 10
-195.9512108695175
 20
321.7989539229926
 30
0.0
 10
-196.0582786744797
 20
321.46921984573
 30
0.0
 10
-196.2723531532186
 20
320.8099399554083
 30
0.0
 10
-196.9574525978681
 20
320.0384683064885
 30
0.0
 10
-197.8375696562608
 20
319.5399055269241
 30
0.0
 10
-198.8463178669179
 20
319.3835007092903
 30
0.0
 10
-199.854786582824
 20
319.5773981513581
 30
0.0
 10
-200.758984340306
 20
320.0920942190609
 30
0.0
 10
-201.4628010784714
 20
320.8808896434816
 30
0.0
 10
-201.8701795337013
 20
321.8639812639835
 30
0.0
 10
-201.9203851187185
 20
322.9184052905921
 30
0.0
 10
-201.6180387701849
 20
323.9192112425018
 30
0.0
 10
-201.0051538609585
 20
324.7705654045891
 30
0.0
 10
-200.1444980246341
 20
325.3844747950732
 30
0.0
 10
-199.1399444354523
 20
325.6799408344409
 30
0.0
 10
-198.12419481852
 20
325.6220859703096
 30
0.0
 10
-197.2071724797417
 20
325.2292014790644
 30
0.0
 10
-196.4731147499449
 20
324.5415056627314
 30
0.0
 10
-196.0930763848031
 20
323.8321412862365
 30
0.0
 10
-195.9785460117608
 20
323.3893187787883
 30
0.0
 10
-195.9512108695175
 20
323.2836296422904
 30
0.0
  0
LINE
  5
21F
330
1F
100
AcDbEntity
  8
0
100
AcDbLine
 10
-216.3040911261
 20
334.0412917826
 30
0.0
 11
-195.9512108695
 21
334.0412917826
 31
0.0
  0
LINE
  5
220
330
1F
100
AcDbEntity
  8
0
100
AcDbLine
 10
-216.3040911261
 20
249.0412917826
 30
0.0
 11
-195.9512108695
 21
249.0412917826
 31
0.0
  0
ARC
  5
221
330
1F
100
AcDbEntity
  8
0
100
AcDbCircle
 10
-199.4399650296
 20
322.5932694879
 30
0.0
 40
3.050527498069459
100
AcDbArc
 50
359.0236943405999
 51
85.8904971007
  0
ARC
  5
222
330
1F
100
AcDbEntity
  8
0
100
AcDbCircle
 10
-199.459694677
 20
322.5044712343
 30
0.0
 40
3.070035103318831
100
AcDbArc
 50
277.9127751181
 51
0.6871949428000002
  0
LWPOLYLINE
  5
223
330
1F
100
AcDbEntity
  8
0
100
AcDbPolyline
 90
       25
 70
   128
 43
0.0
 10
-196.9720578215
 20
322.5412917826
 10
-197.0547128843
 20
323.1883393954
 10
-197.2970452668
 20
323.7912917826
 10
-197.6825404177
 20
324.3090587356
 10
-198.1849274793
 20
324.7063552921
 10
-198.7699696038
 20
324.9561063484
 10
-199.3977971372
 20
325.0412917826
 10
-200.0256246705
 20
324.9561063484
 10
-200.610666795
 20
324.7063552921
 10
-201.1130538567
 20
324.3090587356
 10
-201.4985490075
 20
323.7912917826
 10
-201.74088139
 20
323.1883393954
 10
-201.8235364529
 20
322.5412917826
 10
-201.74088139
 20
321.8942441699
 10
-201.4985490075
 20
321.2912917826
 10
-201.1130538567
 20
320.7735248297
 10
-200.610666795
 20
320.3762282732
 10
-200.0256246705
 20
320.1264772169
 10
-199.3977971372
 20
320.0412917826
 10
-198.7699696038
 20
320.1264772169
 10
-198.1849274793
 20
320.3762282732
 10
-197.6825404177
 20
320.7735248297
 10
-197.2970452668
 20
321.2912917826
 10
-197.0547128843
 20
321.8942441699
 10
-196.9720578215
 20
322.5412917826
  0
SPLINE
  5
224
330
1F
100
AcDbEntity
  8
0
100
AcDbSpline
210
0.0
220
0.0
230
1.0
 70
     8
 71
     3
 72
    15
 73
    11
 74
     0
 42
0.000000001
 43
0.00000001
 40
0.0
 40
0.0
 40
0.0
 40
0.0
 40
0.122657845027124
 40
0.24904523089705
 40
0.3716582386655315
 40
0.4975525665463905
 40
0.625493800988414
 40
0.7569072868884312
 40
0.8887225495225414
 40
1.0
 40
1.0
 40
1.0
 40
1.0
 10
-198.2484946665206
 20
322.5412917826416
 30
0.0
 10
-198.2538932640874
 20
322.6744714297447
 30
0.0
 10
-198.2648546092607
 20
322.9448801912572
 30
0.0
 10
-198.3529309862434
 20
323.3364710540927
 30
0.0
 10
-198.4920480012774
 20
323.7083149614623
 30
0.0
 10
-198.6842144289108
 20
324.049670559468
 30
0.0
 10
-198.930142633044
 20
324.3584076698954
 30
0.0
 10
-199.228088232608
 20
324.6201111518431
 30
0.0
 10
-199.5511125231913
 20
324.8227876448414
 30
0.0
 10
-199.787686740469
 20
324.9014433303101
 30
0.0
 10
-199.8959803022561
 20
324.9374485401434
 30
0.0
  0
SPLINE
  5
225
330
1F
100
AcDbEntity
  8
0
100
AcDbSpline
210
0.0
220
0.0
230
1.0
 70
     8
 71
     3
 72
    15
 73
    11
 74
     0
 42
0.000000001
 43
0.00000001
 40
0.0
 40
0.0
 40
0.0
 40
0.0
 40
0.0916007318834523
 40
0.2138127867338027
 40
0.3378056571601027
 40
0.4650602797607032
 40
0.5950824177736552
 40
0.7289788664603105
 40
0.8620834224904174
 40
1.0
 40
1.0
 40
1.0
 40
1.0
 10
-199.928008335072
 20
320.1352205209492
 30
0.0
 10
-199.8370536139153
 20
320.1629610848942
 30
0.0
 10
-199.6247487338423
 20
320.2277126121002
 30
0.0
 10
-199.3216625001726
 20
320.3985968592434
 30
0.0
 10
-199.0208160735815
 20
320.6344653991382
 30
0.0
 10
-198.7585679976855
 20
320.9276035371373
 30
0.0
 10
-198.5398627263853
 20
321.2735728059776
 30
0.0
 10
-198.3767419010116
 20
321.6642206410193
 30
0.0
 10
-198.269121693791
 20
322.0922660188653
 30
0.0
 10
-198.2554512492188
 20
322.3898552805036
 30
0.0
 10
-198.2484946665206
 20
322.5412917826415
 30
0.0
  0
LINE
  5
226
330
1F
100
AcDbEntity
  8
0
100
AcDbLine
 10
-189.587584881
 20
245.2412917826
 30
0.0
 11
-216.3040911261
 21
245.2412917826
 31
0.0
  0
LINE
  5
227
330
1F
100
AcDbEntity
  8
0
100
AcDbLine
 10
-216.3040911261
 20
160.2412917826
 30
0.0
 11
-189.587584881
 21
160.2412917826
 31
0.0
  0
LINE
  5
228
330
1F
100
AcDbEntity
  8
0
100
AcDbLine
 10
-178.5211584185
 20
245.2412917826
 30
0.0
 11
-189.587584881
 21
245.2412917826
 31
0.0
  0
LINE
  5
229
330
1F
100
AcDbEntity
  8
0
100
AcDbLine
 10
-178.5211584185
 20
160.2412917826
 30
0.0
 11
-189.587584881
 21
160.2412917826
 31
0.0
  0
LINE
  5
22A
330
1F
100
AcDbEntity
  8
0
100
AcDbLine
 10
-177.2040911261
 20
245.2412917826
 30
0.0
 11
-177.2040911261
 21
160.2412917826
 31
0.0
  0
LINE
  5
22B
330
1F
100
AcDbEntity
  8
0
100
AcDbLine
 10
-178.5211584185
 20
245.2412917826
 30
0.0
 11
-177.2040911261
 21
245.2412917826
 31
0.0
  0
LINE
  5
22C
330
1F
100
AcDbEntity
  8
0
100
AcDbLine
 10
-178.5211584185
 20
160.2412917826
 30
0.0
 11
-177.2040911261
 21
160.2412917826
 31
0.0
  0
LINE
  5
22D
330
1F
100
AcDbEntity
  8
0
  6
Continuous
 62
     8
370
     0
100
AcDbLine
 10
-161.2040911261
 20
249.9912917826
 30
0.0
 11
-161.2040911261
 21
333.0912917826
 31
0.0
  0
LINE
  5
22E
330
1F
100
AcDbEntity
  8
0
  6
Continuous
 62
     8
370
     0
100
AcDbLine
 10
-166.7040911261
 20
253.5412917826
 30
0.0
 11
-166.4040911261
 21
253.5412917826
 31
0.0
  0
LINE
  5
22F
330
1F
100
AcDbEntity
  8
0
  6
Continuous
 62
     8
370
     0
100
AcDbLine
 10
-166.7040911261
 20
329.5412917826
 30
0.0
 11
-166.4040911261
 21
329.5412917826
 31
0.0
  0
LINE
  5
230
330
1F
100
AcDbEntity
  8
0
  6
Continuous
 62
     8
370
     0
100
AcDbLine
 10
-175.2040911261
 20
331.0412917826
 30
0.0
 11
-174.7040911261
 21
331.0412917826
 31
0.0
  0
LINE
  5
231
330
1F
100
AcDbEntity
  8
0
  6
Continuous
 62
     8
370
     0
100
AcDbLine
 10
-175.2040911261
 20
252.0412917826
 30
0.0
 11
-174.7040911261
 21
252.0412917826
 31
0.0
  0
LINE
  5
232
330
1F
100
AcDbEntity
  8
0
  6
Continuous
 62
     8
370
     0
100
AcDbLine
 10
-154.0040911261
 20
162.2412917826
 30
0.0
 11
-177.2040911261
 21
162.2412917826
 31
0.0
  0
LINE
  5
233
330
1F
100
AcDbEntity
  8
0
  6
Continuous
 62
     8
370
     0
100
AcDbLine
 10
-154.0040911261
 20
243.2412917826
 30
0.0
 11
-177.2040911261
 21
243.2412917826
 31
0.0
  0
LINE
  5
234
330
1F
100
AcDbEntity
  8
0
  6
Continuous
 62
     8
370
     0
100
AcDbLine
 10
-154.0040911261
 20
162.2412917826
 30
0.0
 11
-154.0040911261
 21
243.2412917826
 31
0.0
  0
LINE
  5
235
330
1F
100
AcDbEntity
  8
0
  6
Continuous
 62
     8
370
     0
100
AcDbLine
 10
-177.9415198731
 20
334.0412917826
 30
0.0
 11
-177.9415198731
 21
249.0412917826
 31
0.0
  0
LINE
  5
236
330
1F
100
AcDbEntity
  8
0
  6
Continuous
 62
     8
370
     0
100
AcDbLine
 10
-179.8821113257
 20
334.0412917826
 30
0.0
 11
-179.8821113257
 21
249.0412917826
 31
0.0
  0
LINE
  5
237
330
1F
100
AcDbEntity
  8
0
  6
Continuous
 62
     8
370
     0
100
AcDbLine
 10
-186.7617551971
 20
334.0412917826
 30
0.0
 11
-186.7617551971
 21
249.0412917826
 31
0.0
  0
LINE
  5
238
330
1F
100
AcDbEntity
  8
0
  6
Continuous
 62
     8
370
     0
100
AcDbLine
 10
-195.9512108695
 20
334.0412917826
 30
0.0
 11
-195.9512108695
 21
323.2836296423
 31
0.0
  0
LINE
  5
239
330
1F
100
AcDbEntity
  8
0
  6
Continuous
 62
     8
370
     0
100
AcDbLine
 10
-195.9512108695
 20
321.798953923
 30
0.0
 11
-195.9512108695
 21
249.0412917826
 31
0.0
  0
LINE
  5
23A
330
1F
100
AcDbEntity
  8
0
  6
Continuous
 62
     8
370
     0
100
AcDbLine
 10
-178.5211584185
 20
245.2412917826
 30
0.0
 11
-178.5211584185
 21
160.2412917826
 31
0.0
  0
CIRCLE
  5
23B
330
1F
100
AcDbEntity
  8
ASSI
100
AcDbCircle
 10
-169.2040911261
 20
235.2412917826
 30
0.0
 40
3.15000000000001
  0
CIRCLE
  5
23C
330
1F
100
AcDbEntity
  8
ASSI
100
AcDbCircle
 10
-163.2040911261
 20
202.7412917826
 30
0.0
 40
3.150000000000002
  0
CIRCLE
  5
23D
330
1F
100
AcDbEntity
  8
ASSI
100
AcDbCircle
 10
-169.2040911261
 20
170.2412917826
 30
0.0
 40
3.149999999999975
  0
CIRCLE
  5
23E
330
1F
100
AcDbEntity
  8
ASSI
100
AcDbCircle
 10
-169.2040911261
 20
235.2412917826
 30
0.0
 40
6.199999999999995
  0
CIRCLE
  5
23F
330
1F
100
AcDbEntity
  8
ASSI
100
AcDbCircle
 10
-163.2040911261
 20
202.7412917826
 30
0.0
 40
6.200000000000013
  0
CIRCLE
  5
240
330
1F
100
AcDbEntity
  8
ASSI
100
AcDbCircle
 10
-169.2040911261
 20
170.2412917826
 30
0.0
 40
6.199999999999986
  0
LINE
  5
241
330
1F
100
AcDbEntity
  8
0
  6
Continuous
 62
     7
370
     0
100
AcDbLine
 10
-199.3977971372
 20
325.5412917826
 30
0.0
 11
-198.6124491751
 21
325.4300436447
 31
0.0
  0
ARC
  5
242
330
1F
100
AcDbEntity
  8
0
  6
Continuous
 62
     7
370
     0
100
AcDbCircle
 10
-199.4727631626
 20
322.5480511614
 30
0.0
 40
3.00769377878223
100
AcDbArc
 50
271.4282310743
 51
73.3767869461
  0
LINE
  5
243
330
1F
100
AcDbEntity
  8
0
  6
Continuous
 62
     7
370
     0
100
AcDbLine
 10
-166.7040911261
 20
316.5412917826
 30
0.0
 11
-167.2040911261
 21
316.5412917826
 31
0.0
  0
LINE
  5
244
330
1F
100
AcDbEntity
  8
0
  6
Continuous
 62
     7
370
     0
100
AcDbLine
 10
-167.2040911261
 20
311.5412917826
 30
0.0
 11
-166.7040911261
 21
311.5412917826
 31
0.0
  0
LINE
  5
245
330
1F
100
AcDbEntity
  8
0
  6
Continuous
 62
     7
370
     0
100
AcDbLine
 10
-166.7040911261
 20
271.5412917826
 30
0.0
 11
-167.2040911261
 21
271.5412917826
 31
0.0
  0
LINE
  5
246
330
1F
100
AcDbEntity
  8
0
  6
Continuous
 62
     7
370
     0
100
AcDbLine
 10
-167.2040911261
 20
266.5412917826
 30
0.0
 11
-166.7040911261
 21
266.5412917826
 31
0.0
  0
LINE
  5
247
330
1F
100
AcDbEntity
  8
0
100
AcDbLine
 10
-217.0540243279
 20
93.986076272
 30
0.0
 11
-217.0540243279
 21
22.0193652176
 31
0.0
  0
LINE
  5
248
330
1F
100
AcDbEntity
  8
0
100
AcDbLine
 10
-216.3015448471
 20
20.9906476949
 30
0.0
 11
-183.7389896648
 21
11.5906476949
 31
0.0
  0
LINE
  5
249
330
1F
100
AcDbEntity
  8
0
100
AcDbLine
 10
-209.3633316693
 20
99.7847599128
 30
0.0
 11
-209.6133316693
 21
99.5682535619
 31
0.0
  0
LINE
  5
24A
330
1F
100
AcDbEntity
  8
0
100
AcDbLine
 10
-175.8178024502
 20
19.1285308788
 30
0.0
 11
-175.5678024502
 21
19.3450372298
 31
0.0
  0
LINE
  5
24B
330
1F
100
AcDbEntity
  8
0
100
AcDbLine
 10
-171.3149319651
 20
103.5443719908
 30
0.0
 11
-171.3149319651
 21
101.8123211832
 31
0.0
  0
LINE
  5
24C
330
1F
100
AcDbEntity
  8
0
100
AcDbLine
 10
-143.3149319651
 20
101.8123211832
 30
0.0
 11
-143.3149319651
 21
103.5443719908
 31
0.0
  0
LINE
  5
24D
330
1F
100
AcDbEntity
  8
0
100
AcDbLine
 10
-143.3149319651
 20
-50.4349448021
 30
0.0
 11
-143.3149319651
 21
-49.5410467252
 31
0.0
  0
LINE
  5
24E
330
1F
100
AcDbEntity
  8
0
100
AcDbLine
 10
-171.3149319651
 20
-49.5410467252
 30
0.0
 11
-171.3149319651
 21
-50.4349448021
 31
0.0
  0
LINE
  5
24F
330
1F
100
AcDbEntity
  8
0
100
AcDbLine
 10
-143.3149319651
 20
24.9092653272
 30
0.0
 11
-143.3149319651
 21
27.3620091308
 31
0.0
  0
LINE
  5
250
330
1F
100
AcDbEntity
  8
0
100
AcDbLine
 10
-170.8575636103
 20
-0.6261773886
 30
0.0
 11
-170.8575636103
 21
-72.1598757412
 31
0.0
  0
LINE
  5
251
330
1F
100
AcDbEntity
  8
0
100
AcDbLine
 10
-158.4168709517
 20
10.3686586749
 30
0.0
 11
-170.5668709517
 21
-0.1535499811
 31
0.0
  0
LINE
  5
252
330
1F
100
AcDbEntity
  8
0
100
AcDbLine
 10
-143.2149319651
 20
28.2001618615
 30
0.0
 11
-143.2149319651
 21
101.8123211832
 31
0.0
  0
LINE
  5
253
330
1F
100
AcDbEntity
  8
0
100
AcDbLine
 10
-169.3915382065
 20
-0.7607073347
 30
0.0
 11
-169.3915382065
 21
-1.0493824693
 31
0.0
  0
LINE
  5
254
330
1F
100
AcDbEntity
  8
0
100
AcDbLine
 10
-166.0931065718
 20
13.5868996027
 30
0.0
 11
-166.0931065718
 21
3.7208436225
 31
0.0
  0
LINE
  5
255
330
1F
100
AcDbEntity
  8
0
100
AcDbLine
 10
-171.4149319651
 20
19.4240868598
 30
0.0
 11
-171.4149319651
 21
-48.7028939945
 31
0.0
  0
LINE
  5
256
330
1F
100
AcDbEntity
  8
0
100
AcDbLine
 10
-143.2149319651
 20
-48.7028939945
 30
0.0
 11
-143.2149319651
 21
24.9092653272
 31
0.0
  0
LINE
  5
257
330
1F
100
AcDbEntity
  8
0
100
AcDbLine
 10
-143.5572230557
 20
-55.0204193886
 30
0.0
 11
-143.5572230557
 21
18.5917399331
 31
0.0
  0
ARC
  5
258
330
1F
100
AcDbEntity
  8
0
100
AcDbCircle
 10
-158.1367287349
 20
9.1768106248
 30
0.0
 40
5.116663378982619
100
AcDbArc
 50
83.0334234062
 51
96.96657659390002
  0
ARC
  5
259
330
1F
100
AcDbEntity
  8
0
100
AcDbCircle
 10
-180.666556289
 20
83.420773045
 30
0.0
 40
3.481488580194944
100
AcDbArc
 50
136.3174232224
 51
170.550613919
  0
ELLIPSE
  5
25A
330
1F
100
AcDbEntity
  8
0
100
AcDbEllipse
 10
-183.8771097916
 20
84.293255949
 30
0.0
 11
1.998963126341011
 21
1.503535837598733
 31
0.0
210
0.0
220
0.0
230
1.0
 40
0.0428275111
 41
4.156588290811742
 42
4.568105136879232
  0
ELLIPSE
  5
25B
330
1F
100
AcDbEntity
  8
0
100
AcDbEllipse
 10
-215.0540243279
 20
93.293255949
 30
0.0
 11
-1.698956499743474
 21
2.258776486278151
 31
0.0
210
0.0
220
0.0
230
1.0
 40
0.4671764921
 41
1.191481394702039
 42
1.602998240769531
  0
ARC
  5
25C
330
1F
100
AcDbEntity
  8
0
100
AcDbCircle
 10
-213.2291114713
 20
92.820773045
 30
0.0
 40
3.48148858019461
100
AcDbArc
 50
136.3174232224
 51
170.550613919
  0
ELLIPSE
  5
25D
330
1F
100
AcDbEntity
  8
0
100
AcDbEllipse
 10
-183.8771097916
 20
13.7121855406
 30
0.0
 11
-1.698956499743474
 21
2.258776486278158
 31
0.0
210
0.0
220
0.0
230
1.0
 40
0.4671764921
 41
1.602998240769522
 42
2.014515086836995
  0
ARC
  5
25E
330
1F
100
AcDbEntity
  8
0
100
AcDbCircle
 10
-183.7894104279
 20
86.8792695366
 30
0.0
 40
2.903664180321751
100
AcDbArc
 50
263.8436581841
 51
304.4927680765
  0
ARC
  5
25F
330
1F
100
AcDbEntity
  8
0
100
AcDbCircle
 10
-183.7894104279
 20
14.9125584821
 30
0.0
 40
2.903664180321787
100
AcDbArc
 50
263.8436581841
 51
304.4927680765
  0
LINE
  5
260
330
1F
100
AcDbEntity
  8
0
100
AcDbLine
 10
-183.1842894686
 20
85.8253067566
 30
0.0
 11
-180.5842894686
 21
88.0769728064
 31
0.0
  0
LINE
  5
261
330
1F
100
AcDbEntity
  8
0
100
AcDbLine
 10
-180.5842894686
 20
87.2109474026
 30
0.0
 11
-180.5842894686
 21
88.0769728064
 31
0.0
  0
LINE
  5
262
330
1F
100
AcDbEntity
  8
0
100
AcDbLine
 10
-183.4342894686
 20
84.7427750019
 30
0.0
 11
-180.5842894686
 21
87.2109474026
 31
0.0
  0
ARC
  5
263
330
1F
100
AcDbEntity
  8
0
100
AcDbCircle
 10
-182.8781037998
 20
84.1907209485
 30
0.0
 40
0.7836492684937258
100
AcDbArc
 50
135.2136027358
 51
164.7863972642
  0
LINE
  5
264
330
1F
100
AcDbEntity
  8
0
100
AcDbLine
 10
-184.1008046076
 20
83.9923508787
 30
0.0
 11
-183.6342894686
 21
84.3963648403
 31
0.0
  0
ARC
  5
265
330
1F
100
AcDbEntity
  8
0
100
AcDbCircle
 10
-183.6415520341
 20
85.045211365
 30
0.0
 40
0.6488871684837247
100
AcDbArc
 50
270.6412872096
 51
305.8976180658
  0
LINE
  5
266
330
1F
100
AcDbEntity
  8
0
100
AcDbLine
 10
-180.4110843878
 20
86.9877423219
 30
0.0
 11
-183.2610843878
 21
84.5195699211
 31
0.0
  0
LINE
  5
267
330
1F
100
AcDbEntity
  8
0
100
AcDbLine
 10
-179.5450589841
 20
86.7377423219
 30
0.0
 11
-180.4110843878
 21
86.9877423219
 31
0.0
  0
LINE
  5
268
330
1F
100
AcDbEntity
  8
0
100
AcDbLine
 10
-182.1450589841
 20
84.486076272
 30
0.0
 11
-179.5450589841
 21
86.7377423219
 31
0.0
  0
LINE
  5
269
330
1F
100
AcDbEntity
  8
0
100
AcDbLine
 10
-215.7468446509
 20
95.2253067566
 30
0.0
 11
-213.1468446509
 21
97.4769728064
 31
0.0
  0
LINE
  5
26A
330
1F
100
AcDbEntity
  8
0
100
AcDbLine
 10
-213.1468446509
 20
97.4769728064
 30
0.0
 11
-180.5842894686
 21
88.0769728064
 31
0.0
  0
LINE
  5
26B
330
1F
100
AcDbEntity
  8
0
100
AcDbLine
 10
-179.5450589841
 20
86.7377423219
 30
0.0
 11
-179.5450589841
 21
14.7710312674
 31
0.0
  0
LINE
  5
26C
330
1F
100
AcDbEntity
  8
0
100
AcDbLine
 10
-182.1450589841
 20
12.5193652176
 30
0.0
 11
-179.5450589841
 21
14.7710312674
 31
0.0
  0
ARC
  5
26D
330
1F
100
AcDbEntity
  8
0
100
AcDbCircle
 10
-216.4039693279
 20
93.9752013274
 30
0.0
 40
0.6379639937003776
100
AcDbArc
 50
126.7944281085
 51
246.009129815
  0
ELLIPSE
  5
26E
330
1F
100
AcDbEntity
  8
0
100
AcDbEllipse
 10
-215.0540243279
 20
22.7121855406
 30
0.0
 11
1.998963126341011
 21
1.503535837598726
 31
0.0
210
0.0
220
0.0
230
1.0
 40
0.0428275111
 41
3.745071444744457
 42
4.156588290811945
  0
ARC
  5
26F
330
1F
100
AcDbEntity
  8
0
100
AcDbCircle
 10
-216.3220572126
 20
22.07560213
 30
0.0
 40
0.734124272966058
100
AcDbArc
 50
184.3933943537
 51
242.2955264926
  0
LINE
  5
270
330
1F
100
AcDbEntity
  8
0
100
AcDbLine
 10
-216.7860751354
 20
94.486076272
 30
0.0
 11
-214.1860751354
 21
96.7377423219
 31
0.0
  0
LINE
  5
271
330
1F
100
AcDbEntity
  8
0
100
AcDbLine
 10
-214.0468446509
 20
96.697549943
 30
0.0
 11
-214.1860751354
 21
96.7377423219
 31
0.0
  0
ARC
  5
272
330
1F
100
AcDbEntity
  8
0
100
AcDbCircle
 10
-216.0734701064
 20
21.5483243415
 30
0.0
 40
0.6025125139629096
100
AcDbArc
 50
191.7488163578
 51
247.7567593968
  0
LWPOLYLINE
  5
273
330
1F
100
AcDbEntity
  8
0
100
AcDbPolyline
 90
        9
 70
   128
 43
0.0
 10
-184.1008046076
 20
12.0256398242
 10
-184.0334372113
 20
11.8620100621
 10
-183.9482698366
 20
11.732971557
 10
-183.8470877764
 20
11.641229236
 10
-183.7320120261
 20
11.5887062169
 10
-183.6054548231
 20
11.5765034963
 10
-183.4700690808
 20
11.6048768697
 10
-183.328692778
 20
11.6732315695
 10
-183.1842894686
 20
11.780134733
  0
LINE
  5
274
330
1F
100
AcDbEntity
  8
0
100
AcDbLine
 10
-183.1842894686
 20
11.780134733
 30
0.0
 11
-182.6771097916
 21
12.2193652176
 31
0.0
  0
LWPOLYLINE
  5
275
330
1F
100
AcDbEntity
  8
0
100
AcDbPolyline
 90
        3
 70
   128
 43
0.0
 10
-181.8364135991
 20
86.1265760969
 10
-181.7633207492
 20
86.0771205232
 10
-181.6035477441
 20
85.9550387623
  0
LINE
  5
276
330
1F
100
AcDbEntity
  8
0
100
AcDbLine
 10
-208.3040243279
 20
99.7884464774
 30
0.0
 11
-177.1271097916
 21
90.7884464774
 31
0.0
  0
ARC
  5
277
330
1F
100
AcDbEntity
  8
0
100
AcDbCircle
 10
-177.8561052053
 20
88.4346996537
 30
0.0
 40
2.464053250925258
100
AcDbArc
 50
2.8309071157
 51
72.7913578901
  0
LINE
  5
278
330
1F
100
AcDbEntity
  8
0
100
AcDbLine
 10
-175.3950589841
 20
88.5563956698
 30
0.0
 11
-175.3950589841
 21
20.1403887709
 31
0.0
  0
ARC
  5
279
330
1F
100
AcDbEntity
  8
0
100
AcDbCircle
 10
-176.6640486233
 20
20.0908615383
 30
0.0
 40
1.269955767413924
100
AcDbArc
 50
248.6153217667
 51
2.2350551783
  0
LINE
  5
27A
330
1F
100
AcDbEntity
  8
0
100
AcDbLine
 10
-177.1271097916
 20
18.9083379633
 30
0.0
 11
-179.5450589841
 21
19.6063397719
 31
0.0
  0
LINE
  5
27B
330
1F
100
AcDbEntity
  8
0
100
AcDbLine
 10
-210.0360751354
 20
96.5789709979
 30
0.0
 11
-210.0360751354
 21
98.5563956698
 31
0.0
  0
ARC
  5
27C
330
1F
100
AcDbEntity
  8
0
100
AcDbCircle
 10
-208.7670854962
 20
98.6059229023
 30
0.0
 40
1.269955767413873
100
AcDbArc
 50
68.61532176670002
 51
182.2350551783
  0
ARC
  5
27D
330
1F
100
AcDbEntity
  8
0
100
AcDbCircle
 10
-177.6061052053
 20
88.6512060046
 30
0.0
 40
2.464053250925228
100
AcDbArc
 50
2.8309071157
 51
72.7913578901
  0
LINE
  5
27E
330
1F
100
AcDbEntity
  8
0
100
AcDbLine
 10
-208.0540243279
 20
100.0049528283
 30
0.0
 11
-176.8771097916
 21
91.0049528283
 31
0.0
  0
LINE
  5
27F
330
1F
100
AcDbEntity
  8
0
100
AcDbLine
 10
-175.1450589841
 20
88.7729020208
 30
0.0
 11
-175.1450589841
 21
20.3568951218
 31
0.0
  0
ARC
  5
280
330
1F
100
AcDbEntity
  8
0
100
AcDbCircle
 10
-208.5083340733
 20
98.7035747547
 30
0.0
 40
1.378398431242889
100
AcDbArc
 50
70.75595796690001
 51
128.3368291159
  0
ARC
  5
281
330
1F
100
AcDbEntity
  8
0
100
AcDbCircle
 10
-176.4451892036
 20
20.3058378925
 30
0.0
 40
1.301132363922683
100
AcDbArc
 50
312.4017945713
 51
2.2488988174
  0
LWPOLYLINE
  5
282
330
1F
100
AcDbEntity
  8
0
100
AcDbPolyline
 90
       51
 70
   128
 43
0.0
 10
-164.3149319651
 20
97.4821941643
 10
-162.7401501755
 20
97.0913299297
 10
-161.0798094538
 20
96.8022340232
 10
-159.360094365
 20
96.61946566
 10
-157.6081258435
 20
96.5459072065
 10
-155.8515334794
 20
96.5827187232
 10
-154.1180197836
 20
96.7293196707
 10
-152.4349233026
 20
96.9833980643
 10
-150.8287874735
 20
97.3409469362
 10
-149.3249420176
 20
97.7963275269
 10
-147.9471034761
 20
98.3423582124
 10
-146.717001186
 20
98.9704277629
 10
-145.6540345952
 20
99.6706311461
 10
-144.7749673218
 20
100.4319257365
 10
-144.0936627818
 20
101.2423054636
 10
-143.6208655549
 20
102.0889901551
 10
-143.3640319356
 20
102.9586270875
 10
-143.3272123438
 20
103.8375015669
 10
-143.5109874462
 20
104.7117532178
 10
-143.9124589997
 20
105.5675945694
 10
-144.5252955581
 20
106.3915284923
 10
-145.3398323229
 20
107.1705610564
 10
-146.3432235626
 20
107.8924064527
 10
-147.519645198
 20
108.5456807482
 10
-148.8505443571
 20
109.120081417
 10
-150.3149319651
 20
109.6065498173
 10
-151.8897137548
 20
109.9974140519
 10
-153.5500544765
 20
110.2865099584
 10
-155.2697695653
 20
110.4692783215
 10
-157.0217380868
 20
110.5428367751
 10
-158.7783304509
 20
110.5060252584
 10
-160.5118441467
 20
110.3594243109
 10
-162.1949406276
 20
110.1053459172
 10
-163.8010764568
 20
109.7477970454
 10
-165.3049219127
 20
109.2924164547
 10
-166.6827604542
 20
108.7463857691
 10
-167.9128627443
 20
108.1183162187
 10
-168.9758293351
 20
107.4181128355
 10
-169.8548966085
 20
106.6568182451
 10
-170.5362011485
 20
105.846438518
 10
-171.0089983754
 20
104.9997538265
 10
-171.2658319946
 20
104.1301168941
 10
-171.3026515865
 20
103.2512424147
 10
-171.1188764841
 20
102.3769907638
 10
-170.7174049306
 20
101.5211494122
 10
-170.1045683721
 20
100.6972154893
 10
-169.2900316074
 20
99.9181829252
 10
-168.2866403677
 20
99.1963375288
 10
-167.1102187323
 20
98.5430632334
 10
-165.7793195732
 20
97.9686625646
 10
-164.3149319651
 20
97.4821941643
  0
LWPOLYLINE
  5
283
330
1F
100
AcDbEntity
  8
0
100
AcDbPolyline
 90
       18
 70
   128
 43
0.0
 10
-164.3149319651
 20
95.7501433567
 10
-162.7401501755
 20
95.3592791221
 10
-161.0798094538
 20
95.0701832156
 10
-159.360094365
 20
94.8874148525
 10
-157.6081258435
 20
94.8138563989
 10
-155.8515334794
 20
94.8506679156
 10
-154.1180197836
 20
94.9972688631
 10
-152.4349233026
 20
95.2513472568
 10
-150.8287874735
 20
95.6088961286
 10
-149.3249420176
 20
96.0642767193
 10
-147.9471034761
 20
96.6103074049
 10
-146.717001186
 20
97.2383769553
 10
-145.6540345952
 20
97.9385803385
 10
-144.7749673218
 20
98.6998749289
 10
-144.0936627818
 20
99.510254656
 10
-143.6208655549
 20
100.3569393475
 10
-143.3640319356
 20
101.2265762799
 10
-143.3149319651
 20
101.8123211832
  0
LWPOLYLINE
  5
284
330
1F
100
AcDbEntity
  8
0
100
AcDbPolyline
 90
       10
 70
   128
 43
0.0
 10
-171.3149319651
 20
101.8123211832
 10
-171.3026515865
 20
101.5191916071
 10
-171.1188764841
 20
100.6449399562
 10
-170.7174049306
 20
99.7890986046
 10
-170.1045683721
 20
98.9651646817
 10
-169.2900316074
 20
98.1861321176
 10
-168.2866403677
 20
97.4642867213
 10
-167.1102187323
 20
96.8110124258
 10
-165.7793195732
 20
96.236611757
 10
-164.3149319651
 20
95.7501433567
  0
LWPOLYLINE
  5
285
330
1F
100
AcDbEntity
  8
0
100
AcDbPolyline
 90
        3
 70
   128
 43
0.0
 10
-143.3149319651
 20
-50.4349448021
 10
-143.3745959269
 20
-51.0805126029
 10
-143.5572230557
 20
-51.7316180032
  0
ARC
  5
286
330
1F
100
AcDbEntity
  8
0
100
AcDbCircle
 10
-167.5456721339
 20
-50.4097528146
 30
0.0
 40
3.769344016079891
100
AcDbArc
 50
180.3829327589
 51
208.5214174663
  0
ARC
  5
287
330
1F
100
AcDbEntity
  8
0
100
AcDbCircle
 10
-147.8783201349
 20
25.1076410316
 30
0.0
 40
4.567697944030941
100
AcDbArc
 50
306.6359741225
 51
357.5108540733
  0
LWPOLYLINE
  5
288
330
1F
100
AcDbEntity
  8
0
100
AcDbPolyline
 90
       17
 70
   128
 43
0.0
 10
-168.3997634028
 20
20.6335632796
 10
-167.6678003002
 20
20.1970971098
 10
-166.4049822816
 20
19.5854747311
 10
-164.9988087393
 20
19.0578117103
 10
-163.4714558702
 20
18.6224296086
 10
-161.8470109414
 20
18.2861946618
 10
-160.1510924198
 20
18.0544094958
 10
-158.4104459535
 20
17.9307295011
 10
-156.6525225773
 20
17.9171051852
 10
-154.9050457928
 20
18.0137514116
 10
-153.1955743528
 20
18.2191440117
 10
-151.5510676432
 20
18.5300438214
 10
-149.997460517
 20
18.941547765
 10
-148.5592542869
 20
19.4471661795
 10
-147.2591303242
 20
20.0389251605
 10
-146.1175923603
 20
20.7074923153
 10
-145.152643131
 20
21.4423239405
  0
LWPOLYLINE
  5
289
330
1F
100
AcDbEntity
  8
0
100
AcDbPolyline
 90
       22
 70
   128
 43
0.0
 10
-171.3149319651
 20
28.2001618615
 10
-171.2300643578
 20
27.4305693565
 10
-170.9274283482
 20
26.5646235541
 10
-170.410115139
 20
25.7244711679
 10
-169.6862830685
 20
24.9233619028
 10
-168.7673474007
 20
24.1739297306
 10
-167.6678003002
 20
23.4879936442
 10
-166.4049822816
 20
22.8763712654
 10
-164.9988087393
 20
22.3487082447
 10
-163.4714558702
 20
21.913326143
 10
-161.8470109414
 20
21.5770911962
 10
-160.1510924198
 20
21.3453060302
 10
-158.4104459535
 20
21.2216260355
 10
-156.6525225773
 20
21.2080017196
 10
-154.9050457928
 20
21.304647946
 10
-153.1955743528
 20
21.5100405461
 10
-151.5510676432
 20
21.8209403558
 10
-149.997460517
 20
22.2324442994
 10
-148.5592542869
 20
22.7380627139
 10
-147.2591303242
 20
23.3298216949
 10
-146.1175923603
 20
23.9983888496
 10
-145.152643131
 20
24.7332204748
  0
LINE
  5
28A
330
1F
100
AcDbEntity
  8
0
100
AcDbLine
 10
-169.8575636103
 20
-1.4922027924
 30
0.0
 11
-166.6532696163
 21
-2.4172027924
 31
0.0
  0
LINE
  5
28B
330
1F
100
AcDbEntity
  8
0
100
AcDbLine
 10
-166.6532696163
 20
-73.950901145
 30
0.0
 11
-166.6532696163
 21
-2.4172027924
 31
0.0
  0
LINE
  5
28C
330
1F
100
AcDbEntity
  8
0
100
AcDbLine
 10
-169.8575636103
 20
-73.025901145
 30
0.0
 11
-166.6532696163
 21
-73.950901145
 31
0.0
  0
LINE
  5
28D
330
1F
100
AcDbEntity
  8
0
100
AcDbLine
 10
-170.8450143969
 20
-0.5143299806
 30
0.0
 11
-170.0369864737
 21
-0.7475875501
 31
0.0
  0
ARC
  5
28E
330
1F
100
AcDbEntity
  8
0
100
AcDbCircle
 10
-169.7408970341
 20
-0.6125936283
 30
0.0
 40
0.3254109941836668
100
AcDbArc
 50
204.5093231573
 51
261.2185282679999
  0
LINE
  5
28F
330
1F
100
AcDbEntity
  8
0
100
AcDbLine
 10
-169.7905763122
 20
-0.9341900905
 30
0.0
 11
-166.1532696163
 21
-1.9841900905
 31
0.0
  0
LINE
  5
290
330
1F
100
AcDbEntity
  8
0
100
AcDbLine
 10
-166.6532696163
 20
-2.4172027924
 30
0.0
 11
-166.1532696163
 21
-1.9841900905
 31
0.0
  0
LWPOLYLINE
  5
291
330
1F
100
AcDbEntity
  8
0
100
AcDbPolyline
 90
        9
 70
   128
 43
0.0
 10
-170.8450143969
 20
-0.5143299806
 10
-170.8564860291
 20
-0.6589994981
 10
-170.826055912
 20
-0.802980993
 10
-170.7543619267
 20
-0.943256301
 10
-170.6429069349
 20
-1.0768849471
 10
-170.4940272747
 20
-1.2010657854
 10
-170.3108437868
 20
-1.3131957159
 10
-170.0971963944
 20
-1.4109242523
 10
-169.8575636103
 20
-1.4922027924
  0
LINE
  5
292
330
1F
100
AcDbEntity
  8
0
100
AcDbLine
 10
-166.1532696163
 20
-73.5178884431
 30
0.0
 11
-166.1532696163
 21
-1.9841900905
 31
0.0
  0
LINE
  5
293
330
1F
100
AcDbEntity
  8
0
100
AcDbLine
 10
-166.1532696163
 20
-73.5178884431
 30
0.0
 11
-166.6532696163
 21
-73.950901145
 31
0.0
  0
LINE
  5
294
330
1F
100
AcDbEntity
  8
0
100
AcDbLine
 10
-166.0532696163
 20
-1.7243824693
 30
0.0
 11
-154.0532696163
 21
8.6679223761
 31
0.0
  0
LINE
  5
295
330
1F
100
AcDbEntity
  8
0
100
AcDbLine
 10
-166.0532696163
 20
-1.7243824693
 30
0.0
 11
-166.0532696163
 21
-0.8583570656
 31
0.0
  0
LINE
  5
296
330
1F
100
AcDbEntity
  8
0
100
AcDbLine
 10
-166.0532696163
 20
-0.8583570656
 30
0.0
 11
-153.9032696163
 21
9.6638515904
 31
0.0
  0
ARC
  5
297
330
1F
100
AcDbEntity
  8
0
100
AcDbCircle
 10
-169.7168985966
 20
-1.1375320977
 30
0.0
 40
1.288808029800026
100
AcDbArc
 50
69.1205474141
 51
151.0825351165
  0
LINE
  5
298
330
1F
100
AcDbEntity
  8
0
100
AcDbLine
 10
-169.2575636103
 20
0.0666429344
 30
0.0
 11
-166.0532696163
 21
-0.8583570656
 31
0.0
  0
LINE
  5
299
330
1F
100
AcDbEntity
  8
0
100
AcDbLine
 10
-169.6905763122
 20
-0.6743824693
 30
0.0
 11
-166.0532696163
 21
-1.7243824693
 31
0.0
  0
ARC
  5
29A
330
1F
100
AcDbEntity
  8
0
100
AcDbCircle
 10
-169.8040808288
 20
-0.9934911123
 30
0.0
 40
0.3386939640722653
100
AcDbArc
 50
70.41991420839999
 51
133.4450112077
  0
LINE
  5
29B
330
1F
100
AcDbEntity
  8
0
100
AcDbLine
 10
-157.1075636103
 20
10.5888515904
 30
0.0
 11
-153.9032696163
 21
9.6638515904
 31
0.0
  0
LWPOLYLINE
  5
29C
330
1F
100
AcDbEntity
  8
0
100
AcDbPolyline
 90
        9
 70
   128
 43
0.0
 10
-169.8575636103
 20
-73.025901145
 10
-170.0971963944
 20
-72.9446226049
 10
-170.3108437868
 20
-72.8468940685
 10
-170.4940272747
 20
-72.734764138
 10
-170.6429069349
 20
-72.6105832997
 10
-170.7543619267
 20
-72.4769546535
 10
-170.826055912
 20
-72.3366793456
 10
-170.8564860291
 20
-72.1926978507
 10
-170.8575636103
 20
-72.1598757412
  0
ARC
  5
29D
330
1F
100
AcDbEntity
  8
0
100
AcDbCircle
 10
-157.6502435224
 20
9.4750221981
 30
0.0
 40
1.177414017211822
100
AcDbArc
 50
102.5997123151
 51
130.625432512
  0
LINE
  5
29E
330
1F
100
AcDbEntity
  8
0
100
AcDbLine
 10
-166.2032696163
 20
-73.5611897133
 30
0.0
 11
-166.0532696163
 21
-73.6044909835
 31
0.0
  0
LINE
  5
29F
330
1F
100
AcDbEntity
  8
0
100
AcDbLine
 10
-166.0532696163
 20
-74.4705163872
 30
0.0
 11
-166.0532696163
 21
-73.6044909835
 31
0.0
  0
LINE
  5
2A0
330
1F
100
AcDbEntity
  8
0
100
AcDbLine
 10
-169.2575636103
 20
-73.5455163872
 30
0.0
 11
-166.0532696163
 21
-74.4705163872
 31
0.0
  0
ARC
  5
2A1
330
1F
100
AcDbEntity
  8
0
100
AcDbCircle
 10
-168.5388625075
 20
-71.2275490372
 30
0.0
 40
2.426830012813428
100
AcDbArc
 50
220.6396198238
 51
252.7736046226
  0
LINE
  5
2A2
330
1F
100
AcDbEntity
  8
0
100
AcDbLine
 10
-166.0532696163
 20
-73.6044909835
 30
0.0
 11
-154.0532696163
 21
-63.212186138
 31
0.0
  0
LINE
  5
2A3
330
1F
100
AcDbEntity
  8
0
100
AcDbLine
 10
-166.0532696163
 20
-74.4705163872
 30
0.0
 11
-154.0532696163
 21
-64.0782115418
 31
0.0
  0
LWPOLYLINE
  5
2A4
330
1F
100
AcDbEntity
  8
0
100
AcDbPolyline
 90
        3
 70
   128
 43
0.0
 10
-181.7378068776
 20
85.838766942
 10
-181.7720432921
 20
85.8835368193
 10
-181.9155484496
 20
86.0580433061
  0
LINE
  5
2A5
330
1F
100
AcDbEntity
  8
0
100
AcDbLine
 10
-209.2833861657
 20
102.8063196501
 30
0.0
 11
-210.6521005392
 21
101.6209782321
 31
0.0
  0
ARC
  5
2A6
330
1F
100
AcDbEntity
  8
0
100
AcDbCircle
 10
-207.5779693413
 20
100.2462699493
 30
0.0
 40
3.076085339459195
100
AcDbArc
 50
79.17140800619998
 51
123.6701840452
  0
LINE
  5
2A7
330
1F
100
AcDbEntity
  8
0
100
AcDbLine
 10
-179.6642210405
 20
99.3483684096
 30
0.0
 11
-207.0000606465
 21
103.267581346
 31
0.0
  0
LWPOLYLINE
  5
2A8
330
1F
100
AcDbEntity
  8
0
100
AcDbPolyline
 90
       10
 70
   128
 43
0.0
 10
-171.385942271
 20
102.2641698778
 10
-171.5953599149
 20
101.6288857522
 10
-172.0511415784
 20
101.0267100084
 10
-172.735399051
 20
100.4812764328
 10
-173.6212770582
 20
100.0139918335
 10
-174.674007259
 20
99.6431958806
 10
-175.8522728103
 20
99.3834413228
 10
-177.1098299425
 20
99.2449228314
 10
-178.3973229036
 20
99.2330768864
 10
-179.6642210405
 20
99.3483684096
  0
LWPOLYLINE
  5
2A9
330
1F
100
AcDbEntity
  8
0
100
AcDbPolyline
 90
       17
 70
   128
 43
0.0
 10
-160.1139812181
 20
94.9026301033
 10
-158.3789141543
 20
94.7824217902
 10
-156.6274265295
 20
94.7707067328
 10
-154.8865492561
 20
94.8676657307
 10
-153.1831494956
 20
95.0718024045
 10
-151.543516015
 20
95.3799662892
 10
-149.9929534685
 20
95.7874014557
 10
-148.5553918683
 20
96.2878199095
 10
-147.25301727
 20
96.8734986346
 10
-146.1059293724
 20
97.5353987829
 10
-145.1318313164
 20
98.2633051723
 10
-144.3457564707
 20
99.045983939
 10
-143.75983642
 20
99.8713559104
 10
-143.3831137365
 20
100.7266830247
 10
-143.2214024254
 20
101.598764919
 10
-143.277198196
 20
102.4741426521
 10
-143.3149319651
 20
102.6504739139
  0
LINE
  5
2AA
330
1F
100
AcDbEntity
  8
0
100
AcDbLine
 10
-171.3149319651
 20
102.6504739139
 30
0.0
 11
-171.385942271
 21
102.2641698778
 31
0.0
  0
ARC
  5
2AB
330
1F
100
AcDbEntity
  8
0
100
AcDbCircle
 10
-162.6993973409
 20
75.955041233
 30
0.0
 40
19.12316659258023
100
AcDbArc
 50
82.22992378780002
 51
119.8042867654
  0
LINE
  5
2AC
330
1F
100
AcDbEntity
  8
0
100
AcDbLine
 10
-174.0144114711
 20
91.3030887755
 30
0.0
 11
-172.2043547276
 21
92.5487534639
 31
0.0
  0
ARC
  5
2AD
330
1F
100
AcDbEntity
  8
0
100
AcDbCircle
 10
-174.4239858315
 20
92.0428801094
 30
0.0
 40
0.845601782384138
100
AcDbArc
 50
253.1626017429
 51
298.9704477069
  0
LINE
  5
2AE
330
1F
100
AcDbEntity
  8
0
100
AcDbLine
 10
-210.6521005392
 20
101.6209782321
 30
0.0
 11
-174.6689199683
 21
91.2335287377
 31
0.0
  0
ARC
  5
2AF
330
1F
100
AcDbEntity
  8
0
100
AcDbCircle
 10
-162.6993973409
 20
2.3428819113
 30
0.0
 40
19.12316659258033
100
AcDbArc
 50
82.22992378780002
 51
119.8042867654
  0
ARC
  5
2B0
330
1F
100
AcDbEntity
  8
0
100
AcDbCircle
 10
-174.4239858315
 20
18.4307207878
 30
0.0
 40
0.8456017823840107
100
AcDbArc
 50
253.1626017429
 51
298.9704477069
  0
LINE
  5
2B1
330
1F
100
AcDbEntity
  8
0
100
AcDbLine
 10
-174.0144114711
 20
17.6909294539
 30
0.0
 11
-172.2043547276
 21
18.9365941423
 31
0.0
  0
LINE
  5
2B2
330
1F
100
AcDbEntity
  8
0
100
AcDbLine
 10
-210.6521005392
 20
101.6209782321
 30
0.0
 11
-210.6521005392
 21
96.7568022142
 31
0.0
  0
LINE
  5
2B3
330
1F
100
AcDbEntity
  8
0
100
AcDbLine
 10
-179.5450589841
 20
19.0289895027
 30
0.0
 11
-174.6689199683
 21
17.621369416
 31
0.0
  0
LWPOLYLINE
  5
2B4
330
1F
100
AcDbEntity
  8
0
100
AcDbPolyline
 90
       16
 70
   128
 43
0.0
 10
-160.1139812181
 20
21.2904707816
 10
-158.3789141543
 20
21.1702624686
 10
-156.6274265295
 20
21.1585474111
 10
-154.8865492561
 20
21.255506409
 10
-153.1831494956
 20
21.4596430828
 10
-151.543516015
 20
21.7678069675
 10
-149.9929534685
 20
22.175242134
 10
-148.5553918683
 20
22.6756605878
 10
-147.25301727
 20
23.2613393129
 10
-146.1059293724
 20
23.9232394612
 10
-145.1318313164
 20
24.6511458507
 10
-144.3457564707
 20
25.4338246173
 10
-143.75983642
 20
26.2591965887
 10
-143.3831137365
 20
27.114523703
 10
-143.2214024254
 20
27.9866055974
 10
-143.2149319651
 20
28.2001618615
  0
LINE
  5
2B5
330
1F
100
AcDbEntity
  8
0
100
AcDbLine
 10
-168.3915382065
 20
-1.0493824693
 30
0.0
 11
-166.226474697
 21
-1.6743824693
 31
0.0
  0
LINE
  5
2B6
330
1F
100
AcDbEntity
  8
0
100
AcDbLine
 10
-166.226474697
 20
-1.6743824693
 30
0.0
 11
-165.7934619951
 21
-2.2323951712
 31
0.0
  0
LINE
  5
2B7
330
1F
100
AcDbEntity
  8
0
100
AcDbLine
 10
-165.7934619951
 20
-2.2323951712
 30
0.0
 11
-165.7934619951
 21
-73.2464782816
 31
0.0
  0
LINE
  5
2B8
330
1F
100
AcDbEntity
  8
0
100
AcDbLine
 10
-166.1532696163
 20
-73.5024183892
 30
0.0
 11
-165.7934619951
 21
-73.2464782816
 31
0.0
  0
LINE
  5
2B9
330
1F
100
AcDbEntity
  8
0
100
AcDbLine
 10
-161.7934619951
 20
1.2317064439
 30
0.0
 11
-161.9666670759
 21
1.4549115247
 31
0.0
  0
LINE
  5
2BA
330
1F
100
AcDbEntity
  8
0
100
AcDbLine
 10
-161.7934619951
 20
1.2317064439
 30
0.0
 11
-165.7934619951
 21
-2.2323951712
 31
0.0
  0
LINE
  5
2BB
330
1F
100
AcDbEntity
  8
0
100
AcDbLine
 10
-154.133654374
 20
8.5983071338
 30
0.0
 11
-153.9666670759
 21
8.3831147549
 31
0.0
  0
LINE
  5
2BC
330
1F
100
AcDbEntity
  8
0
100
AcDbLine
 10
-161.9666670759
 20
1.4549115247
 30
0.0
 11
-153.9666670759
 21
8.3831147549
 31
0.0
  0
LINE
  5
2BD
330
1F
100
AcDbEntity
  8
0
100
AcDbLine
 10
-161.7934619951
 20
1.2317064439
 30
0.0
 11
-161.7934619951
 21
-32.1677594898
 31
0.0
  0
LWPOLYLINE
  5
2BE
330
1F
100
AcDbEntity
  8
0
100
AcDbPolyline
 90
        9
 70
   128
 43
0.0
 10
-161.7934619951
 20
-32.1677594898
 10
-162.0356033814
 20
-32.8077971005
 10
-162.2174748111
 20
-33.4770207113
 10
-162.3302516986
 20
-34.1429589157
 10
-162.3684619951
 20
-34.7732997184
 10
-162.3302516986
 20
-35.3374583461
 10
-162.2174748111
 20
-35.8080612515
 10
-162.0356033814
 20
-36.1622743056
 10
-161.7934619951
 20
-36.3829107327
  0
LINE
  5
2BF
330
1F
100
AcDbEntity
  8
0
100
AcDbLine
 10
-161.7934619951
 20
-36.3829107327
 30
0.0
 11
-161.7934619951
 21
-69.7823766664
 31
0.0
  0
LINE
  5
2C0
330
1F
100
AcDbEntity
  8
0
100
AcDbLine
 10
-161.7934619951
 20
-69.7823766664
 30
0.0
 11
-165.7934619951
 21
-73.2464782816
 31
0.0
  0
LWPOLYLINE
  5
2C1
330
1F
100
AcDbEntity
  8
0
100
AcDbPolyline
 90
       18
 70
   128
 43
0.0
 10
-161.7934619951
 20
-36.3972105353
 10
-161.6120177881
 20
-36.4066616678
 10
-161.2120663505
 20
-36.2664954379
 10
-160.794888443
 20
-35.922251393
 10
-160.3897690041
 20
-35.3980946808
 10
-160.0251464955
 20
-34.7308199083
 10
-159.7266165867
 20
-33.9672682444
 10
-159.5151353971
 20
-33.1610392762
 10
-159.4055484244
 20
-32.3687284407
 10
-159.4055484244
 20
-31.6459541532
 10
-159.5151353971
 20
-31.0434535223
 10
-159.7266165867
 20
-30.6035207194
 10
-160.0251464955
 20
-30.3570380251
 10
-160.3897690041
 20
-30.3213079631
 10
-160.794888443
 20
-30.4988387021
 10
-161.2120663505
 20
-30.8771679889
 10
-161.6120177881
 20
-31.4297379694
 10
-161.7934619951
 20
-31.7534596873
  0
LINE
  5
2C2
330
1F
100
AcDbEntity
  8
0
100
AcDbLine
 10
-153.9666670759
 20
8.3831147549
 30
0.0
 11
-153.9666670759
 21
9.5089477799
 31
0.0
  0
LINE
  5
2C3
330
1F
100
AcDbEntity
  8
0
100
AcDbLine
 10
-148.4666670759
 20
14.2720875007
 30
0.0
 11
-153.9666670759
 21
9.5089477799
 31
0.0
  0
LINE
  5
2C4
330
1F
100
AcDbEntity
  8
0
100
AcDbLine
 10
-148.4666670759
 20
14.2720875007
 30
0.0
 11
-148.4666670759
 21
-59.340071821
 31
0.0
  0
LINE
  5
2C5
330
1F
100
AcDbEntity
  8
0
100
AcDbLine
 10
-148.4666670759
 20
-59.340071821
 30
0.0
 11
-153.9666670759
 21
-64.1032115418
 31
0.0
  0
LINE
  5
2C6
330
1F
100
AcDbEntity
  8
0
100
AcDbLine
 10
-153.9666670759
 20
-62.9773785169
 30
0.0
 11
-153.9666670759
 21
-64.1032115418
 31
0.0
  0
LINE
  5
2C7
330
1F
100
AcDbEntity
  8
0
100
AcDbLine
 10
-161.7934619951
 20
-69.7555817472
 30
0.0
 11
-153.9666670759
 21
-62.9773785169
 31
0.0
  0
LWPOLYLINE
  5
2C8
330
1F
100
AcDbEntity
  8
0
100
AcDbPolyline
 90
       24
 70
   128
 43
0.0
 10
-156.3916670759
 20
-57.5430691082
 10
-156.4500723483
 20
-56.8576493561
 10
-156.6209565137
 20
-56.3242249507
 10
-156.8916458753
 20
-55.98235754
 10
-157.2420646415
 20
-55.8574018657
 10
-157.6462238553
 20
-55.9586253187
 10
-158.0741488769
 20
-56.2785206184
 10
-158.4941024651
 20
-56.793362594
 10
-158.8749385832
 20
-57.4649677714
 10
-159.1884123587
 20
-58.2435262668
 10
-159.4112748758
 20
-59.0712959585
 10
-159.5269974409
 20
-59.8868849551
 10
-159.5269974409
 20
-60.6298047519
 10
-159.4112748758
 20
-61.2449563861
 10
-159.1884123587
 20
-61.6867168752
 10
-158.8749385832
 20
-61.9223228646
 10
-158.4941024651
 20
-61.934300536
 10
-158.0741488769
 20
-61.7217615601
 10
-157.6462238553
 20
-61.3004689806
 10
-157.2420646415
 20
-60.7016681408
 10
-156.8916458753
 20
-59.9697693597
 10
-156.6209565137
 20
-59.1590542216
 10
-156.4500723483
 20
-58.3296497595
 10
-156.3916670759
 20
-57.5430691082
  0
LWPOLYLINE
  5
2C9
330
1F
100
AcDbEntity
  8
0
100
AcDbPolyline
 90
       24
 70
   128
 43
0.0
 10
-156.3916670759
 20
-1.2514178622
 10
-156.4500723483
 20
-0.5659981101
 10
-156.6209565137
 20
-0.0325737047
 10
-156.8916458753
 20
0.309293706
 10
-157.2420646415
 20
0.4342493803
 10
-157.6462238553
 20
0.3330259273
 10
-158.0741488769
 20
0.0131306276
 10
-158.4941024651
 20
-0.501711348
 10
-158.8749385832
 20
-1.1733165254
 10
-159.1884123587
 20
-1.9518750208
 10
-159.4112748758
 20
-2.7796447125
 10
-159.5269974409
 20
-3.5952337091
 10
-159.5269974409
 20
-4.3381535059
 10
-159.4112748758
 20
-4.9533051401
 10
-159.1884123587
 20
-5.3950656292
 10
-158.8749385832
 20
-5.6306716187
 10
-158.4941024651
 20
-5.64264929
 10
-158.0741488769
 20
-5.4301103141
 10
-157.6462238553
 20
-5.0088177346
 10
-157.2420646415
 20
-4.4100168948
 10
-156.8916458753
 20
-3.6781181137
 10
-156.6209565137
 20
-2.8674029756
 10
-156.4500723483
 20
-2.0379985135
 10
-156.3916670759
 20
-1.2514178622
  0
ARC
  5
2CA
330
1F
100
AcDbEntity
  8
0
100
AcDbCircle
 10
-163.6763025247
 20
-0.9671780915
 30
0.0
 40
5.759266747365769
100
AcDbArc
 50
317.3955885136
 51
10.4001839825
  0
LWPOLYLINE
  5
2CB
330
1F
100
AcDbEntity
  8
0
100
AcDbPolyline
 90
       15
 70
   128
 43
0.0
 10
-160.1032350858
 20
14.4945239912
 10
-159.2309615543
 20
14.3087034811
 10
-158.2950951888
 20
14.2326569371
 10
-157.3500251405
 20
14.270803908
 10
-156.4506754457
 20
14.4209274304
 10
-155.6493130394
 20
14.6743028709
 10
-154.992510192
 20
15.0162049699
 10
-154.5184378975
 20
15.4267636202
 10
-154.2546475145
 20
15.8821186453
 10
-154.2164695813
 20
16.3558064663
 10
-154.4061228605
 20
16.8202980688
 10
-154.8125853929
 20
17.2485988893
 10
-155.4122350536
 20
17.6158176409
 10
-156.1702223839
 20
17.9006129045
 10
-156.2710836505
 20
17.9287499326
  0
LWPOLYLINE
  5
2CC
330
1F
100
AcDbEntity
  8
0
100
AcDbPolyline
 90
       11
 70
   128
 43
0.0
 10
-159.6682027864
 20
18.0088646786
 10
-159.8227820241
 20
17.9742094653
 10
-160.6241444303
 20
17.7208340247
 10
-161.2809472778
 20
17.3789319257
 10
-161.7550195723
 20
16.9683732755
 10
-162.0188099552
 20
16.5130182504
 10
-162.0569878885
 20
16.0393304294
 10
-161.8673346093
 20
15.5748388269
 10
-161.4608720768
 20
15.1465380064
 10
-160.8612224161
 20
14.7793192548
 10
-160.1032350858
 20
14.4945239912
  0
ARC
  5
2CD
330
1F
100
AcDbEntity
  8
0
100
AcDbCircle
 10
-157.965006647
 20
10.7325183434
 30
0.0
 40
0.1037464689325493
100
AcDbArc
 50
303.9398639669
 51
34.3452921679
  0
ARC
  5
2CE
330
1F
100
AcDbEntity
  8
0
100
AcDbCircle
 10
-158.721259894
 20
9.8997123912
 30
0.0
 40
1.226090547825552
100
AcDbArc
 50
46.63341694890001
 51
98.65639493809998
  0
ARC
  5
2CF
330
1F
100
AcDbEntity
  8
0
100
AcDbCircle
 10
-158.9011827712
 20
10.7228065246
 30
0.0
 40
0.3890570335375965
100
AcDbArc
 50
90.67953397849999
 51
125.9058250476
  0
LINE
  5
2D0
330
1F
100
AcDbEntity
  8
0
100
AcDbLine
 10
-159.1293471
 20
11.0379357273
 30
0.0
 11
-159.1628194986
 21
11.0089477799
 31
0.0
  0
LINE
  5
2D1
330
1F
100
AcDbEntity
  8
0
100
AcDbLine
 10
-165.0931065718
 20
12.7208741989
 30
0.0
 11
-159.1628194986
 21
11.0089477799
 31
0.0
  0
LWPOLYLINE
  5
2D2
330
1F
100
AcDbEntity
  8
0
100
AcDbPolyline
 90
        9
 70
   128
 43
0.0
 10
-166.0625170854
 20
13.7611280652
 10
-166.0926078642
 20
13.609229971
 10
-166.0761114731
 20
13.4568115927
 10
-166.0134122679
 20
13.3074241864
 10
-165.9059711023
 20
13.164548388
 10
-165.7562912903
 20
13.0315131174
 10
-165.567860281
 20
12.9114180157
 10
-165.3450684028
 20
12.8070612262
 10
-165.0931065718
 20
12.7208741989
  0
ARC
  5
2D3
330
1F
100
AcDbEntity
  8
0
100
AcDbCircle
 10
-172.0759650714
 20
15.4451759409
 30
0.0
 40
6.244803754094596
100
AcDbArc
 50
344.3552581462999
 51
55.5223242249
  0
ARC
  5
2D4
330
1F
100
AcDbEntity
  8
0
100
AcDbCircle
 10
-147.0529156372
 20
24.9060140784
 30
0.0
 40
3.83151178900357
100
AcDbArc
 50
323.0747432050001
 51
12.6856013317
  0
ARC
  5
2D5
330
1F
100
AcDbEntity
  8
0
100
AcDbCircle
 10
-141.727505008
 20
20.9543568845
 30
0.0
 40
2.800065585753034
100
AcDbArc
 50
143.8999709524
 51
224.6080646439
  0
ARC
  5
2D6
330
1F
100
AcDbEntity
  8
0
100
AcDbCircle
 10
-144.1578418043
 20
18.5846162537
 30
0.0
 40
0.5946394714947371
100
AcDbArc
 50
304.0175961885
 51
42.71637998890001
  0
LINE
  5
2D7
330
1F
100
AcDbEntity
  8
0
100
AcDbLine
 10
-143.8251722481
 20
18.0917399331
 30
0.0
 11
-148.2934619951
 21
14.2220875007
 31
0.0
  0
LINE
  5
2D8
330
1F
100
AcDbEntity
  8
0
100
AcDbLine
 10
-148.2934619951
 20
14.2220875007
 30
0.0
 11
-148.4666670759
 21
14.2720875007
 31
0.0
  0
LINE
  5
2D9
330
1F
100
AcDbEntity
  8
0
100
AcDbLine
 10
-153.9666670759
 20
9.5089477799
 30
0.0
 11
-157.9070826631
 21
10.6464477799
 31
0.0
  0
LINE
  5
2DA
330
1F
100
AcDbEntity
  8
0
100
AcDbLine
 10
-157.9070826631
 20
10.6464477799
 30
0.0
 11
-157.9070826631
 21
10.5200510446
 31
0.0
  0
LINE
  5
2DB
330
1F
100
AcDbEntity
  8
0
100
AcDbLine
 10
-159.1628194986
 20
11.0089477799
 30
0.0
 11
-159.1628194986
 21
9.7226482834
 31
0.0
  0
ARC
  5
2DC
330
1F
100
AcDbEntity
  8
0
100
AcDbCircle
 10
-166.780110727
 20
-31.6972402356
 30
0.0
 40
5.858960421999121
100
AcDbArc
 50
319.7863034544
 51
10.0838064945
  0
LWPOLYLINE
  5
2DD
330
1F
100
AcDbEntity
  8
0
100
AcDbPolyline
 90
       16
 70
   128
 43
0.0
 10
-154.6866988533
 20
15.2533911962
 10
-154.6490037275
 20
15.4016131692
 10
-154.6857426051
 20
15.8398947017
 10
-154.9393196331
 20
16.2598385204
 10
-155.3938016342
 20
16.6350580105
 10
-156.0206318328
 20
16.9419767515
 10
-156.7804241823
 20
17.1613099103
 10
-157.6254381349
 20
17.2792759777
 10
-158.5025783563
 20
17.2884627119
 10
-159.3567309005
 20
17.1882928766
 10
-160.1342262218
 20
16.985060511
 10
-160.7862114296
 20
16.691535452
 10
-161.2717198957
 20
16.3261609586
 10
-161.5602453374
 20
15.9118948539
 10
-161.6336586402
 20
15.474767001
 10
-161.5867586164
 20
15.2533911961
  0
LWPOLYLINE
  5
2DE
330
1F
100
AcDbEntity
  8
0
100
AcDbPolyline
 90
       13
 70
   128
 43
0.0
 10
-154.7059232668
 20
15.2360380591
 10
-154.9393196331
 20
15.6015708344
 10
-155.3938016342
 20
15.9767903245
 10
-156.0206318328
 20
16.2837090655
 10
-156.7804241823
 20
16.5030422243
 10
-157.6254381349
 20
16.6210082917
 10
-158.5025783563
 20
16.6301950259
 10
-159.3567309005
 20
16.5300251906
 10
-160.1342262218
 20
16.326792825
 10
-160.7862114296
 20
16.033267766
 10
-161.2717198957
 20
15.6678932725
 10
-161.5602453374
 20
15.2536271679
 10
-161.5742690842
 20
15.218915552
  0
ARC
  5
2DF
330
1F
100
AcDbEntity
  8
0
100
AcDbCircle
 10
-158.1367287349
 20
9.1905934249
 30
0.0
 40
6.016534762248694
100
AcDbArc
 50
65.64558251850002
 51
114.3544174815
  0
LINE
  5
2E0
330
1F
100
AcDbEntity
  8
0
100
AcDbLine
 10
-143.8251722481
 20
-55.5204193886
 30
0.0
 11
-148.2934619951
 21
-59.390071821
 31
0.0
  0
LINE
  5
2E1
330
1F
100
AcDbEntity
  8
0
100
AcDbLine
 10
-148.2934619951
 20
14.2220875007
 30
0.0
 11
-148.2934619951
 21
-59.390071821
 31
0.0
  0
LINE
  5
2E2
330
1F
100
AcDbEntity
  8
0
100
AcDbLine
 10
-148.2934619951
 20
-59.390071821
 30
0.0
 11
-148.4666670759
 21
-59.340071821
 31
0.0
  0
ARC
  5
2E4
330
1F
100
AcDbEntity
  8
0
100
AcDbCircle
 10
-147.0141184149
 20
-48.6705648731
 30
0.0
 40
3.799323999390217
100
AcDbArc
 50
335.4875537641
 51
359.5124541711
  0
ARC
  5
2E5
330
1F
100
AcDbEntity
  8
0
100
AcDbCircle
 10
-167.5168177087
 20
-48.6562900142
 30
0.0
 40
3.898392833902982
100
AcDbArc
 50
180.6849681654
 51
211.0236473586
  0
ARC
  5
2E6
330
1F
100
AcDbEntity
  8
0
100
AcDbCircle
 10
-144.2199418501
 20
-54.9870662268
 30
0.0
 40
0.6635575588037551
100
AcDbArc
 50
306.5075672975
 51
357.1188618385
  0
ARC
  5
2E7
330
1F
100
AcDbEntity
  8
0
100
AcDbCircle
 10
-163.6763025247
 20
-57.2588293374
 30
0.0
 40
5.759266747371685
100
AcDbArc
 50
317.3955885136
 51
10.4001839824
  0
LINE
  5
2E8
330
1F
100
AcDbEntity
  8
0
100
AcDbLine
 10
-153.9666670759
 20
-64.1032115418
 30
0.0
 11
-154.0532696163
 21
-64.0782115418
 31
0.0
  0
LINE
  5
2E9
330
1F
100
AcDbEntity
  8
0
  6
Continuous
 62
     8
370
     0
100
AcDbLine
 10
-215.7468446509
 20
95.2253067566
 30
0.0
 11
-183.1842894686
 21
85.8253067566
 31
0.0
  0
LINE
  5
2EA
330
1F
100
AcDbEntity
  8
0
  6
Continuous
 62
     8
370
     0
100
AcDbLine
 10
-184.8771097916
 20
83.4272305452
 30
0.0
 11
-216.0540243279
 21
92.4272305452
 31
0.0
  0
LINE
  5
2EB
330
1F
100
AcDbEntity
  8
0
  6
Continuous
 62
     8
370
     0
100
AcDbLine
 10
-184.8771097916
 20
12.8461601368
 30
0.0
 11
-184.8771097916
 21
83.4272305452
 31
0.0
  0
LINE
  5
2EC
330
1F
100
AcDbEntity
  8
0
  6
Continuous
 62
     8
370
     0
100
AcDbLine
 10
-182.1450589841
 20
84.486076272
 30
0.0
 11
-182.1450589841
 21
12.5193652176
 31
0.0
  0
LINE
  5
2ED
330
1F
100
AcDbEntity
  8
0
  6
Continuous
 62
     8
370
     0
100
AcDbLine
 10
-216.0540243279
 20
21.8461601368
 30
0.0
 11
-184.8771097916
 21
12.8461601368
 31
0.0
  0
LINE
  5
2EE
330
1F
100
AcDbEntity
  8
0
  6
Continuous
 62
     8
370
     0
100
AcDbLine
 10
-216.0540243279
 20
92.4272305452
 30
0.0
 11
-216.0540243279
 21
21.8461601368
 31
0.0
  0
LINE
  5
2EF
330
1F
100
AcDbEntity
  8
0
  6
Continuous
 62
     8
370
     0
100
AcDbLine
 10
-176.8771097916
 20
91.0049528283
 30
0.0
 11
-177.1271097916
 21
90.7884464774
 31
0.0
  0
LINE
  5
2F0
330
1F
100
AcDbEntity
  8
0
  6
Continuous
 62
     8
370
     0
100
AcDbLine
 10
-175.1450589841
 20
88.7729020208
 30
0.0
 11
-175.3950589841
 21
88.5563956698
 31
0.0
  0
LINE
  5
2F1
330
1F
100
AcDbEntity
  8
0
  6
Continuous
 62
     8
370
     0
100
AcDbLine
 10
-208.0540243279
 20
100.0049528283
 30
0.0
 11
-208.3040243279
 21
99.7884464774
 31
0.0
  0
LINE
  5
2F2
330
1F
100
AcDbEntity
  8
0
  6
Continuous
 62
     8
370
     0
100
AcDbLine
 10
-175.1450589841
 20
20.3568951218
 30
0.0
 11
-175.3950589841
 21
20.1403887709
 31
0.0
  0
LINE
  5
2F3
330
1F
100
AcDbEntity
  8
0
  6
Continuous
 62
     8
370
     0
100
AcDbLine
 10
-169.8575636103
 20
-1.4922027924
 30
0.0
 11
-169.8575636103
 21
-73.025901145
 31
0.0
  0
LINE
  5
2F4
330
1F
100
AcDbEntity
  8
0
  6
Continuous
 62
     8
370
     0
100
AcDbLine
 10
-169.2575636103
 20
0.0666429344
 30
0.0
 11
-157.1075636103
 21
10.5888515904
 31
0.0
  0
LINE
  5
2F5
330
1F
100
AcDbEntity
  8
0
  6
Continuous
 62
     8
370
     0
100
AcDbLine
 10
-169.9678534783
 20
-0.847524241
 30
0.0
 11
-169.7524352696
 21
-0.6609665998
 31
0.0
  0
LWPOLYLINE
  5
2F6
330
1F
100
AcDbEntity
  8
0
  6
Continuous
 62
     8
370
     0
100
AcDbPolyline
 90
        3
 70
   128
 43
0.0
 10
-183.4155484496
 20
84.7590052004
 10
-183.2720432921
 20
84.5844987136
 10
-183.2378068776
 20
84.5397288363
  0
LINE
  5
2F7
330
1F
100
AcDbEntity
  8
0
  6
Continuous
 62
     8
370
     0
100
AcDbLine
 10
-160.1139812181
 20
94.9026301033
 30
0.0
 11
-160.1139812181
 21
21.2904707816
 31
0.0
  0
LINE
  5
2F8
330
1F
100
AcDbEntity
  8
0
  6
Continuous
 62
     8
370
     0
100
AcDbLine
 10
-172.2043547276
 20
92.5487534639
 30
0.0
 11
-172.2043547276
 21
18.9365941423
 31
0.0
  0
LINE
  5
2F9
330
1F
100
AcDbEntity
  8
0
  6
Continuous
 62
     8
370
     0
100
AcDbLine
 10
-174.0144114711
 20
91.3030887755
 30
0.0
 11
-174.0144114711
 21
17.6909294539
 31
0.0
  0
LINE
  5
2FA
330
1F
100
AcDbEntity
  8
0
  6
Continuous
 62
     8
370
     0
100
AcDbLine
 10
-174.6689199683
 20
91.2335287377
 30
0.0
 11
-174.6689199683
 21
17.621369416
 31
0.0
  0
LINE
  5
2FB
330
1F
100
AcDbEntity
  8
0
  6
Continuous
 62
     8
370
     0
100
AcDbLine
 10
-168.3915382065
 20
-1.0493824693
 30
0.0
 11
-168.3915382065
 21
-1.3380576039
 31
0.0
  0
LINE
  5
2FC
330
1F
100
AcDbEntity
  8
0
  6
Continuous
 62
     8
370
     0
100
AcDbLine
 10
-157.8793481082
 20
10.7910499123
 30
0.0
 11
-157.8793481082
 21
10.6768456474
 31
0.0
  0
LINE
  5
2FD
330
1F
100
AcDbEntity
  8
0
  6
Continuous
 62
     8
370
     0
100
AcDbLine
 10
-158.9057969204
 20
11.1118361957
 30
0.0
 11
-158.9057969204
 21
9.9452363654
 31
0.0
  0
LINE
  5
2FE
330
1F
100
AcDbEntity
  8
0
  6
Continuous
 62
     8
370
     0
100
AcDbLine
 10
-159.1293471
 20
11.0379357273
 30
0.0
 11
-159.1293471
 21
9.7516362308
 31
0.0
  0
LINE
  5
2FF
330
1F
100
AcDbEntity
  8
0
  6
Continuous
 62
     8
370
     0
100
AcDbLine
 10
-165.0931065718
 20
12.7208741989
 30
0.0
 11
-165.0931065718
 21
4.5868690263
 31
0.0
  0
LINE
  5
300
330
1F
100
AcDbEntity
  8
0
  6
Continuous
 62
     8
370
     0
100
AcDbLine
 10
-169.075278963
 20
20.427727598
 30
0.0
 11
-169.075278963
 21
1.1382065732
 31
0.0
  0
ARC
  5
301
330
1F
100
AcDbEntity
  8
0
  6
Continuous
 62
     8
370
     0
100
AcDbCircle
 10
-158.1384167763
 20
10.573706756
 30
0.0
 40
5.768159587061017
100
AcDbArc
 50
53.30663420759999
 51
126.5147983965
  0
LINE
  5
302
330
1F
100
AcDbEntity
  8
0
  6
Continuous
 62
     8
370
     0
100
AcDbLine
 10
-143.8251722481
 20
18.0917399331
 30
0.0
 11
-143.8251722481
 21
-55.5204193886
 31
0.0
  0
LINE
  5
303
330
1F
100
AcDbEntity
  8
0
  6
Continuous
 62
     8
370
     0
100
AcDbLine
 10
-143.9899288391
 20
22.604146475
 30
0.0
 11
-143.9899288391
 21
19.3344743442
 31
0.0
  0
LINE
  5
305
330
1F
100
AcDbEntity
  8
0
100
AcDbLine
 10
-318.4790774643
 20
417.9182247749446
 30
0.0
 11
-318.4790774643
 21
410.9182247749446
 31
0.0
  0
LINE
  5
306
330
1F
100
AcDbEntity
  8
0
100
AcDbLine
 10
-299.4790774643
 20
410.9182247749446
 30
0.0
 11
-299.4790774643
 21
417.9182247749446
 31
0.0
  0
LINE
  5
307
330
1F
100
AcDbEntity
  8
0
100
AcDbLine
 10
-311.9790774643
 20
418.9182247749446
 30
0.0
 11
-311.9790774643
 21
418.4182247749446
 31
0.0
  0
LINE
  5
308
330
1F
100
AcDbEntity
  8
0
100
AcDbLine
 10
-305.9790774643
 20
418.4182247749446
 30
0.0
 11
-305.9790774643
 21
418.9182247749446
 31
0.0
  0
LINE
  5
309
330
1F
100
AcDbEntity
  8
0
100
AcDbLine
 10
-316.8790774643
 20
418.4182247749446
 30
0.0
 11
-316.8790774643
 21
417.9182247749446
 31
0.0
  0
LINE
  5
30A
330
1F
100
AcDbEntity
  8
0
100
AcDbLine
 10
-301.0790774643
 20
417.9182247749446
 30
0.0
 11
-301.0790774643
 21
418.4182247749446
 31
0.0
  0
CIRCLE
  5
30B
330
1F
100
AcDbEntity
  8
0
100
AcDbCircle
 10
-275.9790774643
 20
398.9182247749446
 30
0.0
 40
2.899999999999977
  0
CIRCLE
  5
30C
330
1F
100
AcDbEntity
  8
0
100
AcDbCircle
 10
-275.9790774643
 20
398.9182247749446
 30
0.0
 40
2.599999999999966
  0
LINE
  5
30D
330
1F
100
AcDbEntity
  8
0
100
AcDbLine
 10
-277.2290774643
 20
398.1965369384446
 30
0.0
 11
-277.2290774643
 21
399.6399126114446
 31
0.0
  0
LINE
  5
30E
330
1F
100
AcDbEntity
  8
0
100
AcDbLine
 10
-275.9790774643
 20
397.4748491020446
 30
0.0
 11
-277.2290774643
 21
398.1965369384446
 31
0.0
  0
LINE
  5
30F
330
1F
100
AcDbEntity
  8
0
100
AcDbLine
 10
-274.7290774643
 20
398.1965369384446
 30
0.0
 11
-275.9790774643
 21
397.4748491020446
 31
0.0
  0
LINE
  5
310
330
1F
100
AcDbEntity
  8
0
100
AcDbLine
 10
-274.7290774643
 20
399.6399126114446
 30
0.0
 11
-274.7290774643
 21
398.1965369384446
 31
0.0
  0
LINE
  5
311
330
1F
100
AcDbEntity
  8
0
100
AcDbLine
 10
-275.9790774643
 20
400.3616004479446
 30
0.0
 11
-274.7290774643
 21
399.6399126114446
 31
0.0
  0
LINE
  5
312
330
1F
100
AcDbEntity
  8
0
100
AcDbLine
 10
-277.2290774643
 20
399.6399126114446
 30
0.0
 11
-275.9790774643
 21
400.3616004479446
 31
0.0
  0
ARC
  5
313
330
1F
100
AcDbEntity
  8
0
100
AcDbCircle
 10
-275.9790774643
 20
398.9182247749446
 30
0.0
 40
3.449999999999989
100
AcDbArc
 50
270.0
 51
239.3757293047
  0
LWPOLYLINE
  5
314
330
1F
100
AcDbEntity
  8
0
100
AcDbPolyline
 90
        3
 70
   128
 43
0.0
 10
-277.3809365995
 20
395.7658778770446
 10
-276.7467746864
 20
395.5547234779446
 10
-275.9790774643
 20
395.4682247749446
  0
ARC
  5
315
330
1F
100
AcDbEntity
  8
0
100
AcDbCircle
 10
-275.9790774643
 20
398.9182247749446
 30
0.0
 40
1.250000000000004
100
AcDbArc
 50
240.0000000000001
 51
299.9999999999998
  0
ARC
  5
316
330
1F
100
AcDbEntity
  8
0
100
AcDbCircle
 10
-275.9790774643
 20
398.9182247749446
 30
0.0
 40
1.249999999999976
100
AcDbArc
 50
180.0
 51
240.0000000000001
  0
ARC
  5
317
330
1F
100
AcDbEntity
  8
0
100
AcDbCircle
 10
-275.9790774643
 20
398.9182247749446
 30
0.0
 40
1.250000000000004
100
AcDbArc
 50
299.9999999999998
 51
0.0
  0
ARC
  5
318
330
1F
100
AcDbEntity
  8
0
100
AcDbCircle
 10
-275.9790774643
 20
398.9182247749446
 30
0.0
 40
1.249999999999976
100
AcDbArc
 50
119.9999999999999
 51
180.0
  0
ARC
  5
319
330
1F
100
AcDbEntity
  8
0
100
AcDbCircle
 10
-275.9790774643
 20
398.9182247749446
 30
0.0
 40
1.250000000000004
100
AcDbArc
 50
0.0
 51
60.00000000000011
  0
ARC
  5
31A
330
1F
100
AcDbEntity
  8
0
100
AcDbCircle
 10
-275.9790774643
 20
398.9182247749446
 30
0.0
 40
1.250000000000004
100
AcDbArc
 50
60.00000000000011
 51
119.9999999999999
  0
LINE
  5
31B
330
1F
100
AcDbEntity
  8
0
100
AcDbLine
 10
-317.7544936671
 20
417.9182247749446
 30
0.0
 11
-299.4790774643
 21
417.9182247749446
 31
0.0
  0
LINE
  5
31C
330
1F
100
AcDbEntity
  8
0
100
AcDbLine
 10
-318.4790774643
 20
417.9182247749446
 30
0.0
 11
-317.7544936671
 21
417.9182247749446
 31
0.0
  0
LINE
  5
31D
330
1F
100
AcDbEntity
  8
0
100
AcDbLine
 10
-290.1790774643
 20
419.2182247749446
 30
0.0
 11
-327.7790774643
 21
419.2182247749446
 31
0.0
  0
LINE
  5
31E
330
1F
100
AcDbEntity
  8
0
100
AcDbLine
 10
-290.1790774643
 20
424.4182247749446
 30
0.0
 11
-290.1790774643
 21
419.2182247749446
 31
0.0
  0
LINE
  5
31F
330
1F
100
AcDbEntity
  8
0
100
AcDbLine
 10
-327.7790774643
 20
424.4182247749446
 30
0.0
 11
-327.7790774643
 21
419.2182247749446
 31
0.0
  0
ARC
  5
320
330
1F
100
AcDbEntity
  8
0
100
AcDbCircle
 10
-326.9790774643
 20
424.4182247749446
 30
0.0
 40
2.000000000000013
100
AcDbArc
 50
90.0
 51
113.5781784782005
  0
LINE
  5
321
330
1F
100
AcDbEntity
  8
0
100
AcDbLine
 10
-326.9790774643
 20
426.4182247749446
 30
0.0
 11
-290.9790774643
 21
426.4182247749446
 31
0.0
  0
ARC
  5
322
330
1F
100
AcDbEntity
  8
0
100
AcDbCircle
 10
-290.9790774643
 20
424.4182247749446
 30
0.0
 40
2.000000000000013
100
AcDbArc
 50
66.42182152179947
 51
90.0
  0
LINE
  5
323
330
1F
100
AcDbEntity
  8
0
100
AcDbLine
 10
-290.1790774643
 20
426.2512550529446
 30
0.0
 11
-290.1790774643
 21
424.4182247749446
 31
0.0
  0
LINE
  5
324
330
1F
100
AcDbEntity
  8
0
100
AcDbLine
 10
-327.7790774643
 20
424.4182247749446
 30
0.0
 11
-327.7790774643
 21
426.2512550529446
 31
0.0
  0
ARC
  5
325
330
1F
100
AcDbEntity
  8
0
100
AcDbCircle
 10
-327.4790774643
 20
424.9182247749446
 30
0.0
 40
0.5
100
AcDbArc
 50
126.8698976457997
 51
180.0
  0
LINE
  5
326
330
1F
100
AcDbEntity
  8
0
100
AcDbLine
 10
-328.9790774643
 20
424.4182247749446
 30
0.0
 11
-328.9790774643
 21
419.2182247749446
 31
0.0
  0
ARC
  5
327
330
1F
100
AcDbEntity
  8
0
100
AcDbCircle
 10
-326.9790774643
 20
424.4182247749446
 30
0.0
 40
2.000000000000013
100
AcDbArc
 50
113.5781784782005
 51
180.0
  0
LINE
  5
328
330
1F
100
AcDbEntity
  8
0
100
AcDbLine
 10
-328.9790774643
 20
419.2182247749446
 30
0.0
 11
-327.9790774643
 21
419.2182247749446
 31
0.0
  0
LINE
  5
329
330
1F
100
AcDbEntity
  8
0
100
AcDbLine
 10
-327.9790774643
 20
419.2182247749446
 30
0.0
 11
-327.9790774643
 21
424.9182247749446
 31
0.0
  0
LINE
  5
32A
330
1F
100
AcDbEntity
  8
0
100
AcDbLine
 10
-288.9790774643
 20
424.4182247749446
 30
0.0
 11
-288.9790774643
 21
419.2182247749446
 31
0.0
  0
ARC
  5
32B
330
1F
100
AcDbEntity
  8
0
100
AcDbCircle
 10
-290.4790774643
 20
424.9182247749446
 30
0.0
 40
0.5000000000000341
100
AcDbArc
 50
0.0
 51
53.13010235419897
  0
ARC
  5
32C
330
1F
100
AcDbEntity
  8
0
100
AcDbCircle
 10
-290.9790774643
 20
424.4182247749446
 30
0.0
 40
2.000000000000013
100
AcDbArc
 50
0.0
 51
66.42182152179947
  0
LINE
  5
32D
330
1F
100
AcDbEntity
  8
0
100
AcDbLine
 10
-289.9790774643
 20
424.9182247749446
 30
0.0
 11
-289.9790774643
 21
419.2182247749446
 31
0.0
  0
LINE
  5
32E
330
1F
100
AcDbEntity
  8
0
100
AcDbLine
 10
-289.9790774643
 20
419.2182247749446
 30
0.0
 11
-288.9790774643
 21
419.2182247749446
 31
0.0
  0
LINE
  5
32F
330
1F
100
AcDbEntity
  8
0
100
AcDbLine
 10
-290.4790774643
 20
418.9182247749446
 30
0.0
 11
-290.4790774643
 21
419.2182247749446
 31
0.0
  0
LINE
  5
330
330
1F
100
AcDbEntity
  8
0
100
AcDbLine
 10
-290.4790774643
 20
418.9182247749446
 30
0.0
 11
-292.4790774643
 21
418.9182247749446
 31
0.0
  0
LINE
  5
331
330
1F
100
AcDbEntity
  8
0
100
AcDbLine
 10
-292.4790774643
 20
418.9182247749446
 30
0.0
 11
-325.4790774643
 21
418.9182247749446
 31
0.0
  0
LINE
  5
332
330
1F
100
AcDbEntity
  8
0
100
AcDbLine
 10
-327.4790774643
 20
418.9182247749446
 30
0.0
 11
-327.4790774643
 21
419.2182247749446
 31
0.0
  0
LINE
  5
333
330
1F
100
AcDbEntity
  8
0
100
AcDbLine
 10
-325.4790774643
 20
418.9182247749446
 30
0.0
 11
-327.4790774643
 21
418.9182247749446
 31
0.0
  0
LINE
  5
334
330
1F
100
AcDbEntity
  8
0
100
AcDbLine
 10
-288.9790774643
 20
410.4182247749446
 30
0.0
 11
-288.9790774643
 21
410.9182247749446
 31
0.0
  0
LINE
  5
335
330
1F
100
AcDbEntity
  8
0
100
AcDbLine
 10
-288.9790774643
 20
410.9182247749446
 30
0.0
 11
-290.9790774643
 21
410.9182247749446
 31
0.0
  0
LINE
  5
336
330
1F
100
AcDbEntity
  8
0
100
AcDbLine
 10
-290.9790774643
 20
410.9182247749446
 30
0.0
 11
-326.9790774643
 21
410.9182247749446
 31
0.0
  0
LINE
  5
337
330
1F
100
AcDbEntity
  8
0
100
AcDbLine
 10
-328.9790774643
 20
410.4182247749446
 30
0.0
 11
-328.9790774643
 21
410.9182247749446
 31
0.0
  0
LINE
  5
338
330
1F
100
AcDbEntity
  8
0
100
AcDbLine
 10
-326.9790774643
 20
410.9182247749446
 30
0.0
 11
-328.9790774643
 21
410.9182247749446
 31
0.0
  0
CIRCLE
  5
339
330
1F
100
AcDbEntity
  8
0
100
AcDbCircle
 10
-283.9790774643
 20
383.4182247749446
 30
0.0
 40
13.99999999999999
  0
LINE
  5
33A
330
1F
100
AcDbEntity
  8
0
100
AcDbLine
 10
-285.4926620655
 20
380.3022880530446
 30
0.0
 11
-282.0373894072
 21
380.5494536985446
 31
0.0
  0
LINE
  5
33B
330
1F
100
AcDbEntity
  8
0
100
AcDbLine
 10
-282.0373894072
 20
380.5494536985446
 30
0.0
 11
-280.5238048059
 21
383.6653904204446
 31
0.0
  0
LINE
  5
33C
330
1F
100
AcDbEntity
  8
0
100
AcDbLine
 10
-280.5238048059
 20
383.6653904204446
 30
0.0
 11
-282.465492863
 21
386.5341614968446
 31
0.0
  0
LINE
  5
33D
330
1F
100
AcDbEntity
  8
0
100
AcDbLine
 10
-282.465492863
 20
386.5341614968446
 30
0.0
 11
-285.9207655213
 21
386.2869958514446
 31
0.0
  0
LINE
  5
33E
330
1F
100
AcDbEntity
  8
0
100
AcDbLine
 10
-285.9207655213
 20
386.2869958514446
 30
0.0
 11
-287.4343501226
 21
383.1710591295446
 31
0.0
  0
LINE
  5
33F
330
1F
100
AcDbEntity
  8
0
100
AcDbLine
 10
-287.4343501226
 20
383.1710591295446
 30
0.0
 11
-285.4926620655
 21
380.3022880530446
 31
0.0
  0
ARC
  5
340
330
1F
100
AcDbEntity
  8
0
100
AcDbCircle
 10
-283.9790774643
 20
383.4182247749446
 30
0.0
 40
3.000000000000022
100
AcDbArc
 50
214.0915635161997
 51
274.0915635162003
  0
ARC
  5
341
330
1F
100
AcDbEntity
  8
0
100
AcDbCircle
 10
-283.9790774643
 20
383.4182247749446
 30
0.0
 40
3.000000000000027
100
AcDbArc
 50
274.0915635162003
 51
334.0915635161998
  0
ARC
  5
342
330
1F
100
AcDbEntity
  8
0
100
AcDbCircle
 10
-283.9790774643
 20
383.4182247749446
 30
0.0
 40
3.000000000000007
100
AcDbArc
 50
154.0915635161998
 51
214.0915635162003
  0
ARC
  5
343
330
1F
100
AcDbEntity
  8
0
100
AcDbCircle
 10
-283.9790774643
 20
383.4182247749446
 30
0.0
 40
3.000000000000027
100
AcDbArc
 50
334.0915635161998
 51
34.09156351619967
  0
ARC
  5
344
330
1F
100
AcDbEntity
  8
0
100
AcDbCircle
 10
-283.9790774643
 20
383.4182247749446
 30
0.0
 40
3.000000000000022
100
AcDbArc
 50
94.09156351620028
 51
154.0915635161998
  0
ARC
  5
345
330
1F
100
AcDbEntity
  8
0
100
AcDbCircle
 10
-283.9790774643
 20
383.4182247749446
 30
0.0
 40
3.000000000000022
100
AcDbArc
 50
34.09156351619967
 51
94.09156351620028
  0
LINE
  5
346
330
1F
100
AcDbEntity
  8
0
100
AcDbLine
 10
-269.4790774643
 20
432.4182247749446
 30
0.0
 11
-265.7790774643
 21
432.4182247749446
 31
0.0
  0
LINE
  5
347
330
1F
100
AcDbEntity
  8
0
100
AcDbLine
 10
-265.7790774643
 20
432.4182247749446
 30
0.0
 11
-265.7790774643
 21
408.1182247749446
 31
0.0
  0
LINE
  5
348
330
1F
100
AcDbEntity
  8
0
100
AcDbLine
 10
-269.4790774643
 20
408.1182247749446
 30
0.0
 11
-265.7790774643
 21
408.1182247749446
 31
0.0
  0
LINE
  5
349
330
1F
100
AcDbEntity
  8
0
100
AcDbLine
 10
-271.4790774643
 20
431.6182247749446
 30
0.0
 11
-271.4790774643
 21
408.1182247749446
 31
0.0
  0
ARC
  5
34A
330
1F
100
AcDbEntity
  8
0
100
AcDbCircle
 10
-269.4790774643
 20
431.6182247749446
 30
0.0
 40
2.000000000000013
100
AcDbArc
 50
156.4218215217995
 51
180.0
  0
LINE
  5
34B
330
1F
100
AcDbEntity
  8
0
100
AcDbLine
 10
-269.4790774643
 20
432.4182247749446
 30
0.0
 11
-271.3121077422
 21
432.4182247749446
 31
0.0
  0
LINE
  5
34C
330
1F
100
AcDbEntity
  8
0
100
AcDbLine
 10
-271.4790774643
 20
408.1182247749446
 30
0.0
 11
-269.4790774643
 21
408.1182247749446
 31
0.0
  0
LINE
  5
34D
330
1F
100
AcDbEntity
  8
0
100
AcDbLine
 10
-269.4790774643
 20
433.6182247749446
 30
0.0
 11
-265.7790774643
 21
433.6182247749446
 31
0.0
  0
LINE
  5
34E
330
1F
100
AcDbEntity
  8
0
100
AcDbLine
 10
-265.7790774643
 20
432.6182247749446
 30
0.0
 11
-265.7790774643
 21
433.6182247749446
 31
0.0
  0
LINE
  5
34F
330
1F
100
AcDbEntity
  8
0
100
AcDbLine
 10
-265.7790774643
 20
432.6182247749446
 30
0.0
 11
-269.9790774643
 21
432.6182247749446
 31
0.0
  0
ARC
  5
350
330
1F
100
AcDbEntity
  8
0
100
AcDbCircle
 10
-269.4790774643
 20
431.6182247749446
 30
0.0
 40
2.000000000000013
100
AcDbArc
 50
90.0
 51
156.4218215217995
  0
ARC
  5
351
330
1F
100
AcDbEntity
  8
0
100
AcDbCircle
 10
-269.9790774643
 20
432.1182247749446
 30
0.0
 40
0.5000000000000341
100
AcDbArc
 50
90.0
 51
143.130102354199
  0
LINE
  5
352
330
1F
100
AcDbEntity
  8
0
100
AcDbLine
 10
-290.1790774643
 20
420.4182247749446
 30
0.0
 11
-289.9790774643
 21
420.4182247749446
 31
0.0
  0
LINE
  5
353
330
1F
100
AcDbEntity
  8
0
100
AcDbLine
 10
-290.1790774643
 20
420.2182247749446
 30
0.0
 11
-289.9790774643
 21
420.4182247749446
 31
0.0
  0
LINE
  5
354
330
1F
100
AcDbEntity
  8
0
100
AcDbLine
 10
-327.9790774643
 20
420.4182247749446
 30
0.0
 11
-327.7790774643
 21
420.4182247749446
 31
0.0
  0
LINE
  5
355
330
1F
100
AcDbEntity
  8
0
100
AcDbLine
 10
-327.7790774643
 20
420.2182247749446
 30
0.0
 11
-327.9790774643
 21
420.4182247749446
 31
0.0
  0
ARC
  5
356
330
1F
100
AcDbEntity
  8
0
100
AcDbCircle
 10
-291.9790774643
 20
423.4182247749446
 30
0.0
 40
2.000000000000048
100
AcDbArc
 50
0.0
 51
25.84193276320025
  0
ARC
  5
357
330
1F
100
AcDbEntity
  8
0
100
AcDbCircle
 10
-325.9790774643
 20
423.4182247749446
 30
0.0
 40
2.0
100
AcDbArc
 50
154.1580672369003
 51
180.0
  0
LINE
  5
358
330
1F
100
AcDbEntity
  8
0
100
AcDbLine
 10
-287.9320185387
 20
409.9704890066446
 30
0.0
 11
-287.6101281049
 21
406.9079061053446
 31
0.0
  0
ARC
  5
359
330
1F
100
AcDbEntity
  8
0
100
AcDbCircle
 10
-275.6758653605
 20
408.1622476645446
 30
0.0
 40
12.00000000000002
100
AcDbArc
 50
186.0000000000001
 51
221.5391222851999
  0
ARC
  5
35A
330
1F
100
AcDbEntity
  8
0
100
AcDbCircle
 10
-302.4426691078
 20
392.5536384832446
 30
0.0
 40
6.500000000000028
100
AcDbArc
 50
333.6747206312996
 51
75.99999999999972
  0
LINE
  5
35B
330
1F
100
AcDbEntity
  8
0
100
AcDbLine
 10
-300.8701767864
 20
398.8605607040446
 30
0.0
 11
-328.4629212555
 21
405.7402045754446
 31
0.0
  0
ARC
  5
35C
330
1F
100
AcDbEntity
  8
0
100
AcDbCircle
 10
-327.9790774643
 20
407.6807960279446
 30
0.0
 40
2.000000000000002
100
AcDbArc
 50
180.0
 51
256.0000000000003
  0
LINE
  5
35D
330
1F
100
AcDbEntity
  8
0
100
AcDbLine
 10
-329.9790774643
 20
407.6807960279446
 30
0.0
 11
-329.9790774643
 21
410.4182247749446
 31
0.0
  0
LINE
  5
35E
330
1F
100
AcDbEntity
  8
0
100
AcDbLine
 10
-329.9790774643
 20
410.4182247749446
 30
0.0
 11
-288.4292794864
 21
410.4182247749446
 31
0.0
  0
ARC
  5
35F
330
1F
100
AcDbEntity
  8
0
100
AcDbCircle
 10
-288.4292794864
 20
409.9182247749446
 30
0.0
 40
0.5000000000000613
100
AcDbArc
 50
6.000000000001018
 51
90.0
  0
LINE
  5
360
330
1F
100
AcDbEntity
  8
0
100
AcDbLine
 10
-316.8790774643
 20
418.4182247749446
 30
0.0
 11
-301.0790774643
 21
418.4182247749446
 31
0.0
  0
LINE
  5
361
330
1F
100
AcDbEntity
  8
0
100
AcDbLine
 10
-265.4790774643
 20
397.4182247749446
 30
0.0
 11
-265.6790774643
 21
397.4182247749446
 31
0.0
  0
LINE
  5
362
330
1F
100
AcDbEntity
  8
0
100
AcDbLine
 10
-265.4790774643
 20
388.4816452809446
 30
0.0
 11
-265.4790774643
 21
397.4182247749446
 31
0.0
  0
ARC
  5
363
330
1F
100
AcDbEntity
  8
0
100
AcDbCircle
 10
-267.4790774643
 20
388.4816452809446
 30
0.0
 40
2.0
100
AcDbArc
 50
306.6553108059006
 51
0.0
  0
ARC
  5
364
330
1F
100
AcDbEntity
  8
0
100
AcDbCircle
 10
-260.315082247
 20
378.8547468952446
 30
0.0
 40
9.999999999999995
100
AcDbArc
 50
126.6553108059002
 51
169.0848006760999
  0
ARC
  5
365
330
1F
100
AcDbEntity
  8
0
100
AcDbCircle
 10
-283.9790774643
 20
383.4182247749446
 30
0.0
 40
14.10000000000004
100
AcDbArc
 50
116.5188294111999
 51
349.0848006760999
  0
ARC
  5
366
330
1F
100
AcDbEntity
  8
0
100
AcDbCircle
 10
-299.2044511165
 20
413.9304845593446
 30
0.0
 40
20.00000000000001
100
AcDbArc
 50
296.5188294112
 51
340.0337625298
  0
ARC
  5
367
330
1F
100
AcDbEntity
  8
0
100
AcDbCircle
 10
-278.5267831404
 20
406.4182247749446
 30
0.0
 40
2.0
100
AcDbArc
 50
90.0
 51
160.0337625298001
  0
LINE
  5
368
330
1F
100
AcDbEntity
  8
0
100
AcDbLine
 10
-278.5267831404
 20
408.4182247749446
 30
0.0
 11
-271.6790774643
 21
408.4182247749446
 31
0.0
  0
LINE
  5
369
330
1F
100
AcDbEntity
  8
0
100
AcDbLine
 10
-271.6790774643
 20
408.3512799778446
 30
0.0
 11
-271.6790774643
 21
408.4182247749446
 31
0.0
  0
ARC
  5
36A
330
1F
100
AcDbEntity
  8
0
100
AcDbCircle
 10
-271.3790774643
 20
408.3512799778446
 30
0.0
 40
0.3000000000000114
100
AcDbArc
 50
180.0
 51
233.0583692447949
  0
ARC
  5
36B
330
1F
100
AcDbEntity
  8
0
100
AcDbCircle
 10
-270.980743206
 20
408.8810093353446
 30
0.0
 40
0.9627845603671406
100
AcDbArc
 50
233.0583692447978
 51
310.9557736130012
  0
ARC
  5
36C
330
1F
100
AcDbEntity
  8
0
100
AcDbCircle
 10
-270.5790774643
 20
408.4182247749446
 30
0.0
 40
0.3500000000000113
100
AcDbArc
 50
310.9557736130051
 51
0.0
  0
LINE
  5
36D
330
1F
100
AcDbEntity
  8
0
100
AcDbLine
 10
-265.6790774643
 20
408.4182247749446
 30
0.0
 11
-270.2290774643
 21
408.4182247749446
 31
0.0
  0
LINE
  5
36E
330
1F
100
AcDbEntity
  8
0
100
AcDbLine
 10
-265.6790774643
 20
397.4182247749446
 30
0.0
 11
-265.6790774643
 21
408.4182247749446
 31
0.0
  0
ARC
  5
36F
330
1F
100
AcDbEntity
  8
0
100
AcDbCircle
 10
-275.9790774643
 20
398.9182247749446
 30
0.0
 40
3.933012701892267
100
AcDbArc
 50
268.3173764177999
 51
90.0
  0
ARC
  5
370
330
1F
100
AcDbEntity
  8
0
100
AcDbCircle
 10
-275.9790774643
 20
398.9182247749446
 30
0.0
 40
3.933012701892267
100
AcDbArc
 50
90.0
 51
217.0834791594998
  0
ARC
  5
371
330
1F
100
AcDbEntity
  8
0
100
AcDbCircle
 10
-275.9790774643
 20
398.9182247749446
 30
0.0
 40
3.500000000000057
100
AcDbArc
 50
251.9842585608003
 51
90.0
  0
ARC
  5
372
330
1F
100
AcDbEntity
  8
0
100
AcDbCircle
 10
-275.9790774643
 20
398.9182247749446
 30
0.0
 40
3.500000000000057
100
AcDbArc
 50
90.0
 51
233.4165970165002
  0
LINE
  5
373
330
1F
100
AcDbEntity
  8
0
100
AcDbLine
 10
-265.7790774643
 20
432.4182247749446
 30
0.0
 11
-265.4790774643
 21
432.4182247749446
 31
0.0
  0
LINE
  5
374
330
1F
100
AcDbEntity
  8
0
100
AcDbLine
 10
-265.4790774643
 20
424.4182247749446
 30
0.0
 11
-265.4790774643
 21
432.4182247749446
 31
0.0
  0
LINE
  5
375
330
1F
100
AcDbEntity
  8
0
100
AcDbLine
 10
-265.4790774643
 20
424.4182247749446
 30
0.0
 11
-265.6790774643
 21
424.4182247749446
 31
0.0
  0
LINE
  5
376
330
1F
100
AcDbEntity
  8
0
100
AcDbLine
 10
-265.6790774643
 20
424.4182247749446
 30
0.0
 11
-265.6790774643
 21
408.4182247749446
 31
0.0
  0
LINE
  5
377
330
1F
100
AcDbEntity
  8
0
100
AcDbLine
 10
-274.6982086185
 20
395.7148086296446
 30
0.0
 11
-274.6982086185
 21
395.6610212197446
 31
0.0
  0
LINE
  5
378
330
1F
100
AcDbEntity
  8
0
100
AcDbLine
 10
-277.25994631
 20
395.7004589582446
 30
0.0
 11
-277.25994631
 21
395.7148086296446
 31
0.0
  0
LINE
  5
379
330
1F
100
AcDbEntity
  8
0
100
AcDbLine
 10
-277.25994631
 20
402.1216409202446
 30
0.0
 11
-277.25994631
 21
402.1754283301446
 31
0.0
  0
LINE
  5
37A
330
1F
100
AcDbEntity
  8
0
100
AcDbLine
 10
-274.6982086185
 20
402.1754283301446
 30
0.0
 11
-274.6982086185
 21
402.1216409202446
 31
0.0
  0
LINE
  5
37B
330
1F
100
AcDbEntity
  8
0
  6
Continuous
 62
     8
370
     0
100
AcDbLine
 10
-290.1790774643
 20
424.4182247749446
 30
0.0
 11
-327.7790774643
 21
424.4182247749446
 31
0.0
  0
LINE
  5
37C
330
1F
100
AcDbEntity
  8
0
  6
Continuous
 62
     8
370
     0
100
AcDbLine
 10
-292.4790774643
 20
418.9182247749446
 30
0.0
 11
-292.4790774643
 21
419.2182247749446
 31
0.0
  0
LINE
  5
37D
330
1F
100
AcDbEntity
  8
0
  6
Continuous
 62
     8
370
     0
100
AcDbLine
 10
-325.4790774643
 20
418.9182247749446
 30
0.0
 11
-325.4790774643
 21
419.2182247749446
 31
0.0
  0
LINE
  5
37E
330
1F
100
AcDbEntity
  8
0
  6
Continuous
 62
     8
370
     0
100
AcDbLine
 10
-290.9790774643
 20
410.4182247749446
 30
0.0
 11
-290.9790774643
 21
410.9182247749446
 31
0.0
  0
LINE
  5
37F
330
1F
100
AcDbEntity
  8
0
  6
Continuous
 62
     8
370
     0
100
AcDbLine
 10
-326.9790774643
 20
410.4182247749446
 30
0.0
 11
-326.9790774643
 21
410.9182247749446
 31
0.0
  0
LINE
  5
380
330
1F
100
AcDbEntity
  8
0
  6
Continuous
 62
     8
370
     0
100
AcDbLine
 10
-269.4790774643
 20
432.4182247749446
 30
0.0
 11
-269.4790774643
 21
408.1182247749446
 31
0.0
  0
LINE
  5
381
330
1F
100
AcDbEntity
  8
0
  6
Continuous
 62
     8
370
     0
100
AcDbLine
 10
-289.9790774643
 20
423.4182247749446
 30
0.0
 11
-290.1790774643
 21
423.4182247749446
 31
0.0
  0
LINE
  5
382
330
1F
100
AcDbEntity
  8
0
  6
Continuous
 62
     8
370
     0
100
AcDbLine
 10
-327.7790774643
 20
423.4182247749446
 30
0.0
 11
-327.9790774643
 21
423.4182247749446
 31
0.0
  0
LINE
  5
383
330
1F
100
AcDbEntity
  8
0
100
AcDbLine
 10
-421.1936502618
 20
259.5412917826
 30
0.0
 11
-414.1936502618
 21
259.5412917826
 31
0.0
  0
LINE
  5
384
330
1F
100
AcDbEntity
  8
0
100
AcDbLine
 10
-414.1936502618
 20
278.5412917826
 30
0.0
 11
-421.1936502618
 21
278.5412917826
 31
0.0
  0
LINE
  5
385
330
1F
100
AcDbEntity
  8
0
100
AcDbLine
 10
-421.1936502618
 20
304.5412917826
 30
0.0
 11
-414.1936502618
 21
304.5412917826
 31
0.0
  0
LINE
  5
386
330
1F
100
AcDbEntity
  8
0
100
AcDbLine
 10
-414.1936502618
 20
323.5412917826
 30
0.0
 11
-421.1936502618
 21
323.5412917826
 31
0.0
  0
LINE
  5
387
330
1F
100
AcDbEntity
  8
0
100
AcDbLine
 10
-422.1936502618
 20
311.0412917826
 30
0.0
 11
-421.6936502618
 21
311.0412917826
 31
0.0
  0
LINE
  5
388
330
1F
100
AcDbEntity
  8
0
100
AcDbLine
 10
-421.6936502618
 20
317.0412917826
 30
0.0
 11
-422.1936502618
 21
317.0412917826
 31
0.0
  0
LINE
  5
389
330
1F
100
AcDbEntity
  8
0
100
AcDbLine
 10
-422.1936502618
 20
266.0412917826
 30
0.0
 11
-421.6936502618
 21
266.0412917826
 31
0.0
  0
LINE
  5
38A
330
1F
100
AcDbEntity
  8
0
100
AcDbLine
 10
-421.6936502618
 20
272.0412917826
 30
0.0
 11
-422.1936502618
 21
272.0412917826
 31
0.0
  0
LINE
  5
38B
330
1F
100
AcDbEntity
  8
0
100
AcDbLine
 10
-400.6936502618
 20
336.0412917826
 30
0.0
 11
-400.6936502618
 21
334.0412917826
 31
0.0
  0
LINE
  5
38C
330
1F
100
AcDbEntity
  8
0
100
AcDbLine
 10
-372.6936502618
 20
334.0412917826
 30
0.0
 11
-372.6936502618
 21
336.0412917826
 31
0.0
  0
ARC
  5
38D
330
1F
100
AcDbEntity
  8
0
100
AcDbCircle
 10
-386.6936502618
 20
304.874625116
 30
0.0
 40
34.16666666666669
100
AcDbArc
 50
65.810485846
 51
114.189514154
  0
ARC
  5
38E
330
1F
100
AcDbEntity
  8
0
100
AcDbCircle
 10
-386.6936502618
 20
189.4079584493
 30
0.0
 40
34.16666666666683
100
AcDbArc
 50
275.0502407097001
 51
294.189514154
  0
ARC
  5
38F
330
1F
100
AcDbEntity
  8
0
100
AcDbCircle
 10
-386.6936502618
 20
189.4079584493
 30
0.0
 40
34.16666666666683
100
AcDbArc
 50
245.810485846
 51
264.9497592903
  0
LINE
  5
390
330
1F
100
AcDbEntity
  8
0
100
AcDbLine
 10
-372.6936502618
 20
158.2412917826
 30
0.0
 11
-372.6936502618
 21
160.2412917826
 31
0.0
  0
LINE
  5
391
330
1F
100
AcDbEntity
  8
0
100
AcDbLine
 10
-400.6936502618
 20
160.2412917826
 30
0.0
 11
-400.6936502618
 21
158.2412917826
 31
0.0
  0
LINE
  5
392
330
1F
100
AcDbEntity
  8
0
100
AcDbLine
 10
-400.6936502618
 20
249.0412917826
 30
0.0
 11
-400.6936502618
 21
245.2412917826
 31
0.0
  0
LINE
  5
393
330
1F
100
AcDbEntity
  8
0
100
AcDbLine
 10
-372.6936502618
 20
245.2412917826
 30
0.0
 11
-372.6936502618
 21
249.0412917826
 31
0.0
  0
LINE
  5
394
330
1F
100
AcDbEntity
  8
0
100
AcDbLine
 10
-372.5936502618
 20
249.0412917826
 30
0.0
 11
-372.5936502618
 21
334.0412917826
 31
0.0
  0
LINE
  5
395
330
1F
100
AcDbEntity
  8
0
100
AcDbLine
 10
-421.6936502618
 20
306.1412917826
 30
0.0
 11
-421.1936502618
 21
306.1412917826
 31
0.0
  0
LINE
  5
396
330
1F
100
AcDbEntity
  8
0
100
AcDbLine
 10
-421.1936502618
 20
321.9412917826
 30
0.0
 11
-421.6936502618
 21
321.9412917826
 31
0.0
  0
LINE
  5
397
330
1F
100
AcDbEntity
  8
0
100
AcDbLine
 10
-421.6936502618
 20
261.1412917826
 30
0.0
 11
-421.1936502618
 21
261.1412917826
 31
0.0
  0
LINE
  5
398
330
1F
100
AcDbEntity
  8
0
100
AcDbLine
 10
-421.1936502618
 20
276.9412917826
 30
0.0
 11
-421.6936502618
 21
276.9412917826
 31
0.0
  0
LINE
  5
399
330
1F
100
AcDbEntity
  8
0
100
AcDbLine
 10
-372.5936502618
 20
160.2412917826
 30
0.0
 11
-372.5936502618
 21
245.2412917826
 31
0.0
  0
LINE
  5
39A
330
1F
100
AcDbEntity
  8
0
100
AcDbLine
 10
-421.1936502618
 20
259.5412917826
 30
0.0
 11
-421.1936502618
 21
278.5412917826
 31
0.0
  0
LINE
  5
39B
330
1F
100
AcDbEntity
  8
0
100
AcDbLine
 10
-421.1936502618
 20
304.5412917826
 30
0.0
 11
-421.1936502618
 21
323.5412917826
 31
0.0
  0
LINE
  5
39C
330
1F
100
AcDbEntity
  8
0
100
AcDbLine
 10
-427.6936502618
 20
333.0912917826
 30
0.0
 11
-422.4936502618
 21
333.0912917826
 31
0.0
  0
LINE
  5
39D
330
1F
100
AcDbEntity
  8
0
100
AcDbLine
 10
-422.4936502618
 20
333.0912917826
 30
0.0
 11
-422.4936502618
 21
249.9912917826
 31
0.0
  0
LINE
  5
39E
330
1F
100
AcDbEntity
  8
0
100
AcDbLine
 10
-427.6936502618
 20
249.9912917826
 30
0.0
 11
-422.4936502618
 21
249.9912917826
 31
0.0
  0
ARC
  5
39F
330
1F
100
AcDbEntity
  8
0
100
AcDbCircle
 10
-427.6936502618
 20
250.7912917826
 30
0.0
 40
2.000000000000013
100
AcDbArc
 50
180.0
 51
203.5781784782
  0
LINE
  5
3A0
330
1F
100
AcDbEntity
  8
0
100
AcDbLine
 10
-429.6936502618
 20
250.7912917826
 30
0.0
 11
-429.6936502618
 21
332.2912917826
 31
0.0
  0
ARC
  5
3A1
330
1F
100
AcDbEntity
  8
0
100
AcDbCircle
 10
-427.6936502618
 20
332.2912917826
 30
0.0
 40
2.000000000000057
100
AcDbArc
 50
156.4218215218
 51
180.0
  0
LINE
  5
3A2
330
1F
100
AcDbEntity
  8
0
100
AcDbLine
 10
-429.5266805398
 20
333.0912917826
 30
0.0
 11
-427.6936502618
 21
333.0912917826
 31
0.0
  0
LINE
  5
3A3
330
1F
100
AcDbEntity
  8
0
100
AcDbLine
 10
-427.6936502618
 20
249.9912917826
 30
0.0
 11
-429.5266805398
 21
249.9912917826
 31
0.0
  0
ARC
  5
3A4
330
1F
100
AcDbEntity
  8
0
100
AcDbCircle
 10
-428.1936502618
 20
250.2912917826
 30
0.0
 40
0.5
100
AcDbArc
 50
216.8698976458
 51
270.0
  0
LINE
  5
3A5
330
1F
100
AcDbEntity
  8
0
100
AcDbLine
 10
-422.4936502618
 20
249.7912917826
 30
0.0
 11
-428.1936502618
 21
249.7912917826
 31
0.0
  0
LINE
  5
3A6
330
1F
100
AcDbEntity
  8
0
100
AcDbLine
 10
-422.4936502618
 20
248.7912917826
 30
0.0
 11
-422.4936502618
 21
249.7912917826
 31
0.0
  0
LINE
  5
3A7
330
1F
100
AcDbEntity
  8
0
100
AcDbLine
 10
-427.6936502618
 20
248.7912917826
 30
0.0
 11
-422.4936502618
 21
248.7912917826
 31
0.0
  0
ARC
  5
3A8
330
1F
100
AcDbEntity
  8
0
100
AcDbCircle
 10
-427.6936502618
 20
250.7912917826
 30
0.0
 40
2.0
100
AcDbArc
 50
203.5781784782
 51
270.0
  0
LINE
  5
3A9
330
1F
100
AcDbEntity
  8
0
100
AcDbLine
 10
-427.6936502618
 20
334.2912917826
 30
0.0
 11
-422.4936502618
 21
334.2912917826
 31
0.0
  0
LINE
  5
3AA
330
1F
100
AcDbEntity
  8
0
100
AcDbLine
 10
-422.4936502618
 20
333.2912917826
 30
0.0
 11
-422.4936502618
 21
334.2912917826
 31
0.0
  0
ARC
  5
3AB
330
1F
100
AcDbEntity
  8
0
100
AcDbCircle
 10
-428.1936502618
 20
332.7912917826
 30
0.0
 40
0.5000000000000568
100
AcDbArc
 50
90.0
 51
143.1301023541
  0
ARC
  5
3AC
330
1F
100
AcDbEntity
  8
0
100
AcDbCircle
 10
-427.6936502618
 20
332.2912917826
 30
0.0
 40
2.0
100
AcDbArc
 50
90.0
 51
156.4218215218
  0
LINE
  5
3AD
330
1F
100
AcDbEntity
  8
0
100
AcDbLine
 10
-428.1936502618
 20
333.2912917826
 30
0.0
 11
-422.4936502618
 21
333.2912917826
 31
0.0
  0
LINE
  5
3AE
330
1F
100
AcDbEntity
  8
0
100
AcDbLine
 10
-422.1936502618
 20
251.5412917826
 30
0.0
 11
-422.4936502618
 21
251.5412917826
 31
0.0
  0
LINE
  5
3AF
330
1F
100
AcDbEntity
  8
0
100
AcDbLine
 10
-422.1936502618
 20
253.5412917826
 30
0.0
 11
-422.1936502618
 21
251.5412917826
 31
0.0
  0
LINE
  5
3B0
330
1F
100
AcDbEntity
  8
0
100
AcDbLine
 10
-422.1936502618
 20
329.5412917826
 30
0.0
 11
-422.1936502618
 21
253.5412917826
 31
0.0
  0
LINE
  5
3B1
330
1F
100
AcDbEntity
  8
0
100
AcDbLine
 10
-422.1936502618
 20
331.5412917826
 30
0.0
 11
-422.4936502618
 21
331.5412917826
 31
0.0
  0
LINE
  5
3B2
330
1F
100
AcDbEntity
  8
0
100
AcDbLine
 10
-422.1936502618
 20
331.5412917826
 30
0.0
 11
-422.1936502618
 21
329.5412917826
 31
0.0
  0
LINE
  5
3B3
330
1F
100
AcDbEntity
  8
0
100
AcDbLine
 10
-414.1936502618
 20
331.0412917826
 30
0.0
 11
-414.1936502618
 21
252.0412917826
 31
0.0
  0
LINE
  5
3B4
330
1F
100
AcDbEntity
  8
0
100
AcDbLine
 10
-413.6936502618
 20
250.0412917826
 30
0.0
 11
-414.1936502618
 21
250.0412917826
 31
0.0
  0
LINE
  5
3B5
330
1F
100
AcDbEntity
  8
0
100
AcDbLine
 10
-414.1936502618
 20
252.0412917826
 30
0.0
 11
-414.1936502618
 21
250.0412917826
 31
0.0
  0
LINE
  5
3B6
330
1F
100
AcDbEntity
  8
0
100
AcDbLine
 10
-413.6936502618
 20
333.0412917826
 30
0.0
 11
-414.1936502618
 21
333.0412917826
 31
0.0
  0
LINE
  5
3B7
330
1F
100
AcDbEntity
  8
0
100
AcDbLine
 10
-414.1936502618
 20
333.0412917826
 30
0.0
 11
-414.1936502618
 21
331.0412917826
 31
0.0
  0
LINE
  5
3B8
330
1F
100
AcDbEntity
  8
0
100
AcDbLine
 10
-400.6936502618
 20
336.0412917826
 30
0.0
 11
-372.6936502618
 21
336.0412917826
 31
0.0
  0
LINE
  5
3B9
330
1F
100
AcDbEntity
  8
0
100
AcDbLine
 10
-372.6936502618
 20
158.2412917826
 30
0.0
 11
-400.6936502618
 21
158.2412917826
 31
0.0
  0
ARC
  5
3BA
330
1F
100
AcDbEntity
  8
0
100
AcDbCircle
 10
-383.6977855953
 20
155.5800255424
 30
0.0
 40
0.2064326278296313
100
AcDbArc
 50
231.9996569851
 51
273.277169396
  0
ARC
  5
3BB
330
1F
100
AcDbEntity
  8
0
100
AcDbCircle
 10
-385.3828475463
 20
182.9152524302
 30
0.0
 40
27.54199736766455
100
AcDbArc
 50
266.7572182727
 51
273.2427817272999
  0
ARC
  5
3BC
330
1F
100
AcDbEntity
  8
0
100
AcDbCircle
 10
-388.3752014455
 20
178.7230389042
 30
0.0
 40
23.34978278413526
100
AcDbArc
 50
266.4780822205
 51
273.5219177795
  0
ARC
  5
3BD
330
1F
100
AcDbEntity
  8
0
100
AcDbCircle
 10
-389.6868423784
 20
155.5691873401
 30
0.0
 40
0.1952415048190212
100
AcDbArc
 50
231.0471312242
 51
302.4693574541
  0
ARC
  5
3BE
330
1F
100
AcDbEntity
  8
0
100
AcDbCircle
 10
-388.0044927638
 20
182.9153443742
 30
0.0
 40
27.54209003517403
100
AcDbArc
 50
269.5985191611999
 51
272.7279747755
  0
ARC
  5
3BF
330
1F
100
AcDbEntity
  8
0
100
AcDbCircle
 10
-385.0121701953
 20
178.7231902144
 30
0.0
 40
23.3499354988526
100
AcDbArc
 50
269.564087207
 51
272.9627888457
  0
LINE
  5
3C0
330
1F
100
AcDbEntity
  8
0
100
AcDbLine
 10
-435.6936502618
 20
244.2412917826
 30
0.0
 11
-411.6936502618
 21
244.2412917826
 31
0.0
  0
LINE
  5
3C1
330
1F
100
AcDbEntity
  8
0
100
AcDbLine
 10
-435.6936502618
 20
244.2412917826
 30
0.0
 11
-435.6936502618
 21
245.2412917826
 31
0.0
  0
LINE
  5
3C2
330
1F
100
AcDbEntity
  8
0
100
AcDbLine
 10
-435.6936502618
 20
245.2412917826
 30
0.0
 11
-411.6936502618
 21
245.2412917826
 31
0.0
  0
LINE
  5
3C3
330
1F
100
AcDbEntity
  8
0
100
AcDbLine
 10
-435.6936502618
 20
160.2412917826
 30
0.0
 11
-435.6936502618
 21
161.2412917826
 31
0.0
  0
LINE
  5
3C4
330
1F
100
AcDbEntity
  8
0
100
AcDbLine
 10
-435.6936502618
 20
161.2412917826
 30
0.0
 11
-411.6936502618
 21
161.2412917826
 31
0.0
  0
LINE
  5
3C5
330
1F
100
AcDbEntity
  8
0
100
AcDbLine
 10
-435.6936502618
 20
160.2412917826
 30
0.0
 11
-411.6936502618
 21
160.2412917826
 31
0.0
  0
LINE
  5
3C6
330
1F
100
AcDbEntity
  8
0
100
AcDbLine
 10
-435.8936502618
 20
161.4412917826
 30
0.0
 11
-435.8936502618
 21
244.0412917826
 31
0.0
  0
LINE
  5
3C7
330
1F
100
AcDbEntity
  8
0
100
AcDbLine
 10
-435.8936502618
 20
161.4412917826
 30
0.0
 11
-436.8936502618
 21
161.4412917826
 31
0.0
  0
LINE
  5
3C8
330
1F
100
AcDbEntity
  8
0
100
AcDbLine
 10
-436.8936502618
 20
161.4412917826
 30
0.0
 11
-436.8936502618
 21
244.0412917826
 31
0.0
  0
LINE
  5
3C9
330
1F
100
AcDbEntity
  8
0
100
AcDbLine
 10
-436.8936502618
 20
244.0412917826
 30
0.0
 11
-435.8936502618
 21
244.0412917826
 31
0.0
  0
LINE
  5
3CA
330
1F
100
AcDbEntity
  8
0
100
AcDbLine
 10
-435.8936502618
 20
161.4412917826
 30
0.0
 11
-435.6936502618
 21
161.4412917826
 31
0.0
  0
LINE
  5
3CB
330
1F
100
AcDbEntity
  8
0
100
AcDbLine
 10
-435.6936502618
 20
244.0412917826
 30
0.0
 11
-435.8936502618
 21
244.0412917826
 31
0.0
  0
LINE
  5
3CC
330
1F
100
AcDbEntity
  8
0
100
AcDbLine
 10
-400.0611109033
 20
334.0412917826
 30
0.0
 11
-372.5936502618
 21
334.0412917826
 31
0.0
  0
LINE
  5
3CD
330
1F
100
AcDbEntity
  8
0
100
AcDbLine
 10
-400.0611109033
 20
249.0412917826
 30
0.0
 11
-372.5936502618
 21
249.0412917826
 31
0.0
  0
LINE
  5
3CE
330
1F
100
AcDbEntity
  8
0
100
AcDbLine
 10
-410.1833315922
 20
334.0412917826
 30
0.0
 11
-400.0611109033
 21
334.0412917826
 31
0.0
  0
LINE
  5
3CF
330
1F
100
AcDbEntity
  8
0
100
AcDbLine
 10
-410.1833315922
 20
249.0412917826
 30
0.0
 11
-400.0611109033
 21
249.0412917826
 31
0.0
  0
LINE
  5
3D0
330
1F
100
AcDbEntity
  8
0
100
AcDbLine
 10
-413.2459144935
 20
334.0412917826
 30
0.0
 11
-410.1833315922
 21
334.0412917826
 31
0.0
  0
LINE
  5
3D1
330
1F
100
AcDbEntity
  8
0
100
AcDbLine
 10
-413.2459144935
 20
249.0412917826
 30
0.0
 11
-410.1833315922
 21
249.0412917826
 31
0.0
  0
LINE
  5
3D2
330
1F
100
AcDbEntity
  8
0
100
AcDbLine
 10
-413.6936502618
 20
334.0412917826
 30
0.0
 11
-413.6936502618
 21
249.0412917826
 31
0.0
  0
LINE
  5
3D3
330
1F
100
AcDbEntity
  8
0
100
AcDbLine
 10
-413.6936502618
 20
334.0412917826
 30
0.0
 11
-413.2459144935
 21
334.0412917826
 31
0.0
  0
LINE
  5
3D4
330
1F
100
AcDbEntity
  8
0
100
AcDbLine
 10
-413.6936502618
 20
249.0412917826
 30
0.0
 11
-413.2459144935
 21
249.0412917826
 31
0.0
  0
LINE
  5
3D5
330
1F
100
AcDbEntity
  8
0
100
AcDbLine
 10
-421.6936502618
 20
314.0412917826
 30
0.0
 11
-421.6936502618
 21
321.9412917826
 31
0.0
  0
LINE
  5
3D6
330
1F
100
AcDbEntity
  8
0
100
AcDbLine
 10
-421.6936502618
 20
306.1412917826
 30
0.0
 11
-421.6936502618
 21
314.0412917826
 31
0.0
  0
LINE
  5
3D7
330
1F
100
AcDbEntity
  8
0
100
AcDbLine
 10
-421.6936502618
 20
269.0412917826
 30
0.0
 11
-421.6936502618
 21
276.9412917826
 31
0.0
  0
LINE
  5
3D8
330
1F
100
AcDbEntity
  8
0
100
AcDbLine
 10
-421.6936502618
 20
261.1412917826
 30
0.0
 11
-421.6936502618
 21
269.0412917826
 31
0.0
  0
LINE
  5
3D9
330
1F
100
AcDbEntity
  8
0
100
AcDbLine
 10
-391.7570707678
 20
245.2412917826
 30
0.0
 11
-390.1525877035
 21
245.2412917826
 31
0.0
  0
LINE
  5
3DA
330
1F
100
AcDbEntity
  8
0
100
AcDbLine
 10
-391.7570707678
 20
160.2412917826
 30
0.0
 11
-390.1525877035
 21
160.2412917826
 31
0.0
  0
LINE
  5
3DB
330
1F
100
AcDbEntity
  8
0
100
AcDbLine
 10
-400.6936502618
 20
245.2412917826
 30
0.0
 11
-400.6936502618
 21
160.2412917826
 31
0.0
  0
LINE
  5
3DC
330
1F
100
AcDbEntity
  8
0
100
AcDbLine
 10
-391.7570707678
 20
245.2412917826
 30
0.0
 11
-400.6936502618
 21
245.2412917826
 31
0.0
  0
LINE
  5
3DD
330
1F
100
AcDbEntity
  8
0
100
AcDbLine
 10
-391.7570707678
 20
160.2412917826
 30
0.0
 11
-400.6936502618
 21
160.2412917826
 31
0.0
  0
LINE
  5
3DE
330
1F
100
AcDbEntity
  8
0
100
AcDbLine
 10
-427.6936502618
 20
161.5412917826
 30
0.0
 11
-411.6936502618
 21
161.5412917826
 31
0.0
  0
LINE
  5
3DF
330
1F
100
AcDbEntity
  8
0
100
AcDbLine
 10
-435.6936502618
 20
161.2412917826
 30
0.0
 11
-435.6936502618
 21
161.7412917826
 31
0.0
  0
LINE
  5
3E0
330
1F
100
AcDbEntity
  8
0
100
AcDbLine
 10
-427.6936502618
 20
161.7412917826
 30
0.0
 11
-435.6936502618
 21
161.7412917826
 31
0.0
  0
LINE
  5
3E1
330
1F
100
AcDbEntity
  8
0
100
AcDbLine
 10
-427.6936502618
 20
161.7412917826
 30
0.0
 11
-427.6936502618
 21
161.5412917826
 31
0.0
  0
LINE
  5
3E2
330
1F
100
AcDbEntity
  8
0
100
AcDbLine
 10
-427.6936502618
 20
243.7412917826
 30
0.0
 11
-427.6936502618
 21
243.9412917826
 31
0.0
  0
LINE
  5
3E3
330
1F
100
AcDbEntity
  8
0
100
AcDbLine
 10
-427.6936502618
 20
243.7412917826
 30
0.0
 11
-435.6936502618
 21
243.7412917826
 31
0.0
  0
LINE
  5
3E4
330
1F
100
AcDbEntity
  8
0
100
AcDbLine
 10
-435.6936502618
 20
244.2412917826
 30
0.0
 11
-435.6936502618
 21
243.7412917826
 31
0.0
  0
LINE
  5
3E5
330
1F
100
AcDbEntity
  8
0
100
AcDbLine
 10
-427.6936502618
 20
243.9412917826
 30
0.0
 11
-411.6936502618
 21
243.9412917826
 31
0.0
  0
LINE
  5
3E6
330
1F
100
AcDbEntity
  8
0
100
AcDbLine
 10
-427.6936502618
 20
243.7412917826
 30
0.0
 11
-427.6936502618
 21
205.1749104874
 31
0.0
  0
LINE
  5
3E7
330
1F
100
AcDbEntity
  8
0
100
AcDbLine
 10
-427.6936502618
 20
200.3076730779
 30
0.0
 11
-427.6936502618
 21
161.7412917826
 31
0.0
  0
LINE
  5
3E8
330
1F
100
AcDbEntity
  8
0
100
AcDbLine
 10
-435.6936502618
 20
243.7412917826
 30
0.0
 11
-435.6936502618
 21
161.7412917826
 31
0.0
  0
ARC
  5
3E9
330
1F
100
AcDbEntity
  8
0
100
AcDbCircle
 10
-425.6936502618
 20
202.7412917826
 30
0.0
 40
3.14999999999999
100
AcDbArc
 50
129.4140983561
 51
230.5859016439
  0
LINE
  5
3EA
330
1F
100
AcDbEntity
  8
0
100
AcDbLine
 10
-411.6936502618
 20
243.9412917826
 30
0.0
 11
-411.6936502618
 21
245.2412917826
 31
0.0
  0
LINE
  5
3EB
330
1F
100
AcDbEntity
  8
0
100
AcDbLine
 10
-411.6936502618
 20
161.5412917826
 30
0.0
 11
-411.6936502618
 21
160.2412917826
 31
0.0
  0
CIRCLE
  5
3EC
330
1F
100
AcDbEntity
  8
0
100
AcDbCircle
 10
-419.6936502618
 20
170.2412917826
 30
0.0
 40
3.149999999999977
  0
CIRCLE
  5
3ED
330
1F
100
AcDbEntity
  8
0
100
AcDbCircle
 10
-419.6936502618
 20
235.2412917826
 30
0.0
 40
3.150000000000034
  0
ARC
  5
3EE
330
1F
100
AcDbEntity
  8
0
100
AcDbCircle
 10
-425.6936502618
 20
202.7412917826
 30
0.0
 40
3.14999999999999
100
AcDbArc
 50
230.5859016439
 51
129.4140983561
  0
LINE
  5
3EF
330
1F
100
AcDbEntity
  8
0
100
AcDbLine
 10
-400.6936502618
 20
245.2412917826
 30
0.0
 11
-411.6936502618
 21
245.2412917826
 31
0.0
  0
LINE
  5
3F0
330
1F
100
AcDbEntity
  8
0
100
AcDbLine
 10
-400.6936502618
 20
160.2412917826
 30
0.0
 11
-411.6936502618
 21
160.2412917826
 31
0.0
  0
LINE
  5
3F1
330
1F
100
AcDbEntity
  8
0
100
AcDbLine
 10
-384.0237316683
 20
245.2412917826
 30
0.0
 11
-390.1525877035
 21
245.2412917826
 31
0.0
  0
LINE
  5
3F2
330
1F
100
AcDbEntity
  8
0
100
AcDbLine
 10
-384.0237316683
 20
160.2412917826
 30
0.0
 11
-390.1525877035
 21
160.2412917826
 31
0.0
  0
LINE
  5
3F3
330
1F
100
AcDbEntity
  8
0
100
AcDbLine
 10
-372.5936502618
 20
245.2412917826
 30
0.0
 11
-384.0237316683
 21
245.2412917826
 31
0.0
  0
LINE
  5
3F4
330
1F
100
AcDbEntity
  8
0
100
AcDbLine
 10
-384.0237316683
 20
160.2412917826
 30
0.0
 11
-372.5936502618
 21
160.2412917826
 31
0.0
  0
LINE
  5
3F5
330
1F
100
AcDbEntity
  8
0
  6
Continuous
 62
     8
370
     0
100
AcDbLine
 10
-427.6936502618
 20
333.0912917826
 30
0.0
 11
-427.6936502618
 21
249.9912917826
 31
0.0
  0
LINE
  5
3F6
330
1F
100
AcDbEntity
  8
0
  6
Continuous
 62
     8
370
     0
100
AcDbLine
 10
-422.1936502618
 20
253.5412917826
 30
0.0
 11
-422.4936502618
 21
253.5412917826
 31
0.0
  0
LINE
  5
3F7
330
1F
100
AcDbEntity
  8
0
  6
Continuous
 62
     8
370
     0
100
AcDbLine
 10
-422.1936502618
 20
329.5412917826
 30
0.0
 11
-422.4936502618
 21
329.5412917826
 31
0.0
  0
LINE
  5
3F8
330
1F
100
AcDbEntity
  8
0
  6
Continuous
 62
     8
370
     0
100
AcDbLine
 10
-413.6936502618
 20
331.0412917826
 30
0.0
 11
-414.1936502618
 21
331.0412917826
 31
0.0
  0
LINE
  5
3F9
330
1F
100
AcDbEntity
  8
0
  6
Continuous
 62
     8
370
     0
100
AcDbLine
 10
-413.6936502618
 20
252.0412917826
 30
0.0
 11
-414.1936502618
 21
252.0412917826
 31
0.0
  0
LINE
  5
3FA
330
1F
100
AcDbEntity
  8
0
  6
Continuous
 62
     8
370
     0
100
AcDbLine
 10
-400.0611109033
 20
334.0412917826
 30
0.0
 11
-400.0611109033
 21
249.0412917826
 31
0.0
  0
LINE
  5
3FB
330
1F
100
AcDbEntity
  8
0
  6
Continuous
 62
     8
370
     0
100
AcDbLine
 10
-410.1833315922
 20
334.0412917826
 30
0.0
 11
-410.1833315922
 21
249.0412917826
 31
0.0
  0
LINE
  5
3FC
330
1F
100
AcDbEntity
  8
0
  6
Continuous
 62
     8
370
     0
100
AcDbLine
 10
-413.2459144935
 20
334.0412917826
 30
0.0
 11
-413.2459144935
 21
249.0412917826
 31
0.0
  0
LINE
  5
3FD
330
1F
100
AcDbEntity
  8
0
  6
Continuous
 62
     8
370
     0
100
AcDbLine
 10
-390.1525877035
 20
245.2412917826
 30
0.0
 11
-390.1525877035
 21
160.2412917826
 31
0.0
  0
LINE
  5
3FE
330
1F
100
AcDbEntity
  8
0
  6
Continuous
 62
     8
370
     0
100
AcDbLine
 10
-391.7570707678
 20
245.2412917826
 30
0.0
 11
-391.7570707678
 21
160.2412917826
 31
0.0
  0
LINE
  5
3FF
330
1F
100
AcDbEntity
  8
0
  6
Continuous
 62
     8
370
     0
100
AcDbLine
 10
-384.0237316683
 20
245.2412917826
 30
0.0
 11
-384.0237316683
 21
160.2412917826
 31
0.0
  0
LINE
  5
957
330
1F
100
AcDbEntity
  8
0
  6
CENTER
 62
     1
100
AcDbLine
 10
-323.9790774643
 20
314.0412917826
 30
0.0
 11
-293.9790774643
 21
314.0412917826
 31
0.0
  0
LINE
  5
958
330
1F
100
AcDbEntity
  8
0
  6
CENTER
 62
     1
100
AcDbLine
 10
-308.9790774643
 20
299.0412917826
 30
0.0
 11
-308.9790774643
 21
329.0412917826
 31
0.0
  0
LINE
  5
959
330
1F
100
AcDbEntity
  8
0
  6
CENTER
 62
     1
100
AcDbLine
 10
-323.9790774643
 20
269.0412917826
 30
0.0
 11
-293.9790774643
 21
269.0412917826
 31
0.0
  0
LINE
  5
95A
330
1F
100
AcDbEntity
  8
0
  6
CENTER
 62
     1
100
AcDbLine
 10
-308.9790774643
 20
254.0412917826
 30
0.0
 11
-308.9790774643
 21
284.0412917826
 31
0.0
  0
LINE
  5
95B
330
1F
100
AcDbEntity
  8
0
  6
CENTER
 62
     1
100
AcDbLine
 10
-176.4040911261001
 20
235.2412917826
 30
0.0
 11
-162.0040911261
 21
235.2412917826
 31
0.0
  0
LINE
  5
95C
330
1F
100
AcDbEntity
  8
0
  6
CENTER
 62
     1
100
AcDbLine
 10
-169.2040911261
 20
228.0412917826
 30
0.0
 11
-169.2040911261
 21
242.4412917826
 31
0.0
  0
LINE
  5
95D
330
1F
100
AcDbEntity
  8
0
  6
CENTER
 62
     1
100
AcDbLine
 10
-170.4040911261001
 20
202.7412917826
 30
0.0
 11
-156.0040911261
 21
202.7412917826
 31
0.0
  0
LINE
  5
95E
330
1F
100
AcDbEntity
  8
0
  6
CENTER
 62
     1
100
AcDbLine
 10
-163.2040911261
 20
195.5412917826
 30
0.0
 11
-163.2040911261
 21
209.9412917826
 31
0.0
  0
LINE
  5
95F
330
1F
100
AcDbEntity
  8
0
  6
CENTER
 62
     1
100
AcDbLine
 10
-176.4040911261001
 20
170.2412917826
 30
0.0
 11
-162.0040911261
 21
170.2412917826
 31
0.0
  0
LINE
  5
960
330
1F
100
AcDbEntity
  8
0
  6
CENTER
 62
     1
100
AcDbLine
 10
-169.2040911261
 20
163.0412917826
 30
0.0
 11
-169.2040911261
 21
177.4412917826
 31
0.0
  0
LINE
  5
961
330
1F
100
AcDbEntity
  8
0
  6
CENTER
 62
     1
100
AcDbLine
 10
-419.6936502618
 20
228.0412917826
 30
0.0
 11
-419.6936502618
 21
242.4412917826
 31
0.0
  0
LINE
  5
962
330
1F
100
AcDbEntity
  8
0
  6
CENTER
 62
     1
100
AcDbLine
 10
-426.8936502618
 20
235.2412917826
 30
0.0
 11
-412.4936502617999
 21
235.2412917826
 31
0.0
  0
LINE
  5
963
330
1F
100
AcDbEntity
  8
0
  6
CENTER
 62
     1
100
AcDbLine
 10
-425.6936502618
 20
195.5412917826
 30
0.0
 11
-425.6936502618
 21
209.9412917826
 31
0.0
  0
LINE
  5
964
330
1F
100
AcDbEntity
  8
0
  6
CENTER
 62
     1
100
AcDbLine
 10
-432.8936502618
 20
202.7412917826
 30
0.0
 11
-418.4936502617999
 21
202.7412917826
 31
0.0
  0
LINE
  5
965
330
1F
100
AcDbEntity
  8
0
  6
CENTER
 62
     1
100
AcDbLine
 10
-419.6936502618
 20
163.0412917826
 30
0.0
 11
-419.6936502618
 21
177.4412917826
 31
0.0
  0
LINE
  5
966
330
1F
100
AcDbEntity
  8
0
  6
CENTER
 62
     1
100
AcDbLine
 10
-426.8936502618
 20
170.2412917826
 30
0.0
 11
-412.4936502617999
 21
170.2412917826
 31
0.0
  0
TEXT
  5
967
330
1F
100
AcDbEntity
  8
0
  6
Continuous
 62
     7
370
     0
100
AcDbText
 10
-221.6397523013356
 20
379.2613715364614
 30
0.0
 40
10.0
  1
830E10D
100
AcDbText
  0
LINE
  5
96A
330
1F
100
AcDbEntity
  8
0
  6
CENTER
 62
     1
100
AcDbLine
 10
-298.9790774643
 20
383.4182247749446
 30
0.0
 11
-268.9790774643
 21
383.4182247749446
 31
0.0
  0
LINE
  5
96B
330
1F
100
AcDbEntity
  8
0
  6
CENTER
 62
     1
100
AcDbLine
 10
-283.9790774643
 20
368.4182247749446
 30
0.0
 11
-283.9790774643
 21
398.4182247749446
 31
0.0
  0
LINE
  5
96C
330
1F
100
AcDbEntity
  8
0
  6
CENTER
 62
     1
100
AcDbLine
 10
-298.9790774643
 20
105.0823522977
 30
0.0
 11
-268.9790774643
 21
105.0823522977
 31
0.0
  0
LINE
  5
96D
330
1F
100
AcDbEntity
  8
0
  6
CENTER
 62
     1
100
AcDbLine
 10
-283.9790774643
 20
90.0823522977
 30
0.0
 11
-283.9790774643
 21
120.0823522977
 31
0.0
  0
LINE
  5
96E
330
1F
100
AcDbEntity
  8
ASSI
100
AcDbLine
 10
-386.69365026188
 20
147.0861554176634
 30
0.0
 11
-386.69365026188
 21
344.9197309534634
 31
0.0
  0
LINE
  5
970
330
1F
100
AcDbEntity
  8
ASSI
100
AcDbLine
 10
-202.2040911261
 20
147.0556196717
 30
0.0
 11
-202.2040911261
 21
344.8891952075
 31
0.0
  0
LINE
  5
A4D
330
1F
100
AcDbEntity
  8
0
100
AcDbLine
 10
242.8074465310952
 20
336.0412917826
 30
0.0
 11
242.8074465310952
 21
334.2912917826
 31
0.0
  0
LINE
  5
A4E
330
1F
100
AcDbEntity
  8
0
100
AcDbLine
 10
214.8074465310952
 20
334.0412917826
 30
0.0
 11
214.8074465310952
 21
336.0412917826
 31
0.0
  0
ARC
  5
A4F
330
1F
100
AcDbEntity
  8
0
100
AcDbCircle
 10
228.8074465310952
 20
304.874625116
 30
0.0
 40
34.16666666666671
100
AcDbArc
 50
65.81048584599996
 51
114.1895141540001
  0
LINE
  5
A50
330
1F
100
AcDbEntity
  8
0
100
AcDbLine
 10
214.8074465310952
 20
158.2412917826
 30
0.0
 11
214.8074465310952
 21
160.2412917826
 31
0.0
  0
LINE
  5
A51
330
1F
100
AcDbEntity
  8
0
100
AcDbLine
 10
242.8074465310952
 20
160.2412917826
 30
0.0
 11
242.8074465310952
 21
158.2412917826
 31
0.0
  0
ARC
  5
A52
330
1F
100
AcDbEntity
  8
0
100
AcDbCircle
 10
228.8074465310952
 20
189.4079584493
 30
0.0
 40
34.16666666666674
100
AcDbArc
 50
245.810485846
 51
264.3980991867
  0
ARC
  5
A53
330
1F
100
AcDbEntity
  8
0
100
AcDbCircle
 10
228.8074465310952
 20
189.4079584493
 30
0.0
 40
34.16666666666672
100
AcDbArc
 50
275.6019008132001
 51
294.1895141540001
  0
LINE
  5
A54
330
1F
100
AcDbEntity
  8
0
100
AcDbLine
 10
242.8074465310952
 20
248.7912917826
 30
0.0
 11
242.8074465310952
 21
245.2412917826
 31
0.0
  0
LINE
  5
A55
330
1F
100
AcDbEntity
  8
0
100
AcDbLine
 10
214.8074465310952
 20
245.2412917826
 30
0.0
 11
214.8074465310952
 21
249.0412917826
 31
0.0
  0
LINE
  5
A56
330
1F
100
AcDbEntity
  8
0
100
AcDbLine
 10
214.7074465310952
 20
249.0412917826
 30
0.0
 11
214.7074465310952
 21
334.0412917826
 31
0.0
  0
LINE
  5
A57
330
1F
100
AcDbEntity
  8
0
100
AcDbLine
 10
242.9074465310952
 20
245.2412917826
 30
0.0
 11
242.9074465310952
 21
160.2412917826
 31
0.0
  0
LINE
  5
A58
330
1F
100
AcDbEntity
  8
0
100
AcDbLine
 10
219.4184379572952
 20
170.7412917826
 30
0.0
 11
222.1744049251952
 21
170.7412917826
 31
0.0
  0
LINE
  5
A59
330
1F
100
AcDbEntity
  8
0
100
AcDbLine
 10
219.4470697449952
 20
170.5412917826
 30
0.0
 11
222.1678233170952
 21
170.5412917826
 31
0.0
  0
LINE
  5
A5A
330
1F
100
AcDbEntity
  8
0
100
AcDbLine
 10
219.6891330686952
 20
169.9412917826
 30
0.0
 11
221.9257599933952
 21
169.9412917826
 31
0.0
  0
LINE
  5
A5B
330
1F
100
AcDbEntity
  8
0
100
AcDbLine
 10
219.8765336959952
 20
169.7412917826
 30
0.0
 11
221.7444102138952
 21
169.7412917826
 31
0.0
  0
LINE
  5
A5C
330
1F
100
AcDbEntity
  8
0
100
AcDbLine
 10
220.1200601767952
 20
221.2412917826
 30
0.0
 11
221.4948328852952
 21
221.2412917826
 31
0.0
  0
LINE
  5
A5D
330
1F
100
AcDbEntity
  8
0
100
AcDbLine
 10
235.0074465310952
 20
249.9912917826
 30
0.0
 11
235.8074465310952
 21
250.7912917826
 31
0.0
  0
LINE
  5
A5E
330
1F
100
AcDbEntity
  8
0
100
AcDbLine
 10
235.0074465310952
 20
333.0912917826
 30
0.0
 11
235.8074465310952
 21
332.2912917826
 31
0.0
  0
LINE
  5
A5F
330
1F
100
AcDbEntity
  8
0
100
AcDbLine
 10
235.0074465310952
 20
333.0912917826
 30
0.0
 11
233.8074465310952
 21
333.0912917826
 31
0.0
  0
LINE
  5
A60
330
1F
100
AcDbEntity
  8
0
100
AcDbLine
 10
233.8074465310952
 20
333.0912917826
 30
0.0
 11
233.8074465310952
 21
249.9912917826
 31
0.0
  0
LINE
  5
A61
330
1F
100
AcDbEntity
  8
0
100
AcDbLine
 10
233.8074465310952
 20
249.9912917826
 30
0.0
 11
235.0074465310952
 21
249.9912917826
 31
0.0
  0
LINE
  5
A62
330
1F
100
AcDbEntity
  8
0
100
AcDbLine
 10
272.6074465310951
 20
334.2912917826
 30
0.0
 11
235.0074465310952
 21
334.2912917826
 31
0.0
  0
LINE
  5
A63
330
1F
100
AcDbEntity
  8
0
100
AcDbLine
 10
235.0074465310952
 20
334.2912917826
 30
0.0
 11
235.0074465310952
 21
333.0912917826
 31
0.0
  0
LINE
  5
A64
330
1F
100
AcDbEntity
  8
0
100
AcDbLine
 10
271.8074465310952
 20
332.2912917826
 30
0.0
 11
272.6074465310951
 21
333.0912917826
 31
0.0
  0
LINE
  5
A65
330
1F
100
AcDbEntity
  8
0
100
AcDbLine
 10
272.6074465310951
 20
333.0912917826
 30
0.0
 11
272.6074465310951
 21
334.2912917826
 31
0.0
  0
LINE
  5
A66
330
1F
100
AcDbEntity
  8
0
100
AcDbLine
 10
235.0074465310952
 20
248.7912917826
 30
0.0
 11
272.6074465310951
 21
248.7912917826
 31
0.0
  0
LINE
  5
A67
330
1F
100
AcDbEntity
  8
0
100
AcDbLine
 10
272.6074465310951
 20
248.7912917826
 30
0.0
 11
272.6074465310951
 21
249.9912917826
 31
0.0
  0
LINE
  5
A68
330
1F
100
AcDbEntity
  8
0
100
AcDbLine
 10
271.8074465310952
 20
250.7912917826
 30
0.0
 11
272.6074465310951
 21
249.9912917826
 31
0.0
  0
LINE
  5
A69
330
1F
100
AcDbEntity
  8
0
100
AcDbLine
 10
235.0074465310952
 20
249.9912917826
 30
0.0
 11
235.0074465310952
 21
248.7912917826
 31
0.0
  0
LINE
  5
A6A
330
1F
100
AcDbEntity
  8
0
100
AcDbLine
 10
273.8074465310952
 20
249.9912917826
 30
0.0
 11
273.8074465310952
 21
333.0912917826
 31
0.0
  0
LINE
  5
A6B
330
1F
100
AcDbEntity
  8
0
100
AcDbLine
 10
273.8074465310952
 20
333.0912917826
 30
0.0
 11
272.6074465310951
 21
333.0912917826
 31
0.0
  0
LINE
  5
A6C
330
1F
100
AcDbEntity
  8
0
100
AcDbLine
 10
272.6074465310951
 20
249.9912917826
 30
0.0
 11
273.8074465310952
 21
249.9912917826
 31
0.0
  0
LINE
  5
A6D
330
1F
100
AcDbEntity
  8
0
100
AcDbLine
 10
228.8074465310952
 20
336.0412917826
 30
0.0
 11
214.8074465310952
 21
336.0412917826
 31
0.0
  0
LINE
  5
A6E
330
1F
100
AcDbEntity
  8
0
100
AcDbLine
 10
242.8074465310952
 20
336.0412917826
 30
0.0
 11
228.8074465310952
 21
336.0412917826
 31
0.0
  0
LINE
  5
A6F
330
1F
100
AcDbEntity
  8
0
100
AcDbLine
 10
214.8074465310952
 20
158.2412917826
 30
0.0
 11
242.8074465310952
 21
158.2412917826
 31
0.0
  0
ARC
  5
A70
330
1F
100
AcDbEntity
  8
0
100
AcDbCircle
 10
228.5933957598952
 20
189.2348244346
 30
0.0
 40
33.86157048704539
100
AcDbArc
 50
267.5397439101
 51
270.3621889738
  0
ARC
  5
A71
330
1F
100
AcDbEntity
  8
0
100
AcDbCircle
 10
226.1094323988952
 20
161.8981179527
 30
0.0
 40
6.524854533791759
100
AcDbArc
 50
263.3353742673001
 51
270.8193036793998
  0
ARC
  5
A72
330
1F
100
AcDbEntity
  8
0
100
AcDbCircle
 10
226.3230179011952
 20
166.0838997992
 30
0.0
 40
10.71063548057129
100
AcDbArc
 50
264.7994010767999
 51
275.2005989232
  0
ARC
  5
A73
330
1F
100
AcDbEntity
  8
0
100
AcDbCircle
 10
229.0214982589952
 20
189.2348219827
 30
0.0
 40
33.86156801941789
100
AcDbArc
 50
267.0754672175
 51
272.9245327825001
  0
ARC
  5
A74
330
1F
100
AcDbEntity
  8
0
100
AcDbCircle
 10
231.5058155745952
 20
161.8893040173
 30
0.0
 40
6.516033146216178
100
AcDbArc
 50
263.3314236698999
 51
275.6087295965
  0
ARC
  5
A75
330
1F
100
AcDbEntity
  8
0
100
AcDbCircle
 10
231.2921045239952
 20
166.0842300926
 30
0.0
 40
10.7109724596788
100
AcDbArc
 50
265.6251223346001
 51
270.6422288114999
  0
LINE
  5
A76
330
1F
100
AcDbEntity
  8
0
100
AcDbLine
 10
214.3074465310952
 20
244.0412917826
 30
0.0
 11
210.6074465310951
 21
244.0412917826
 31
0.0
  0
LINE
  5
A77
330
1F
100
AcDbEntity
  8
0
100
AcDbLine
 10
210.6074465310951
 20
161.4412917826
 30
0.0
 11
210.6074465310951
 21
244.0412917826
 31
0.0
  0
LINE
  5
A78
330
1F
100
AcDbEntity
  8
0
100
AcDbLine
 10
214.3074465310952
 20
161.4412917826
 30
0.0
 11
210.6074465310951
 21
161.4412917826
 31
0.0
  0
ARC
  5
A79
330
1F
100
AcDbEntity
  8
0
100
AcDbCircle
 10
214.3074465310952
 20
162.2412917826
 30
0.0
 40
2.000000000000002
100
AcDbArc
 50
336.4218215217994
 51
0.0
  0
LINE
  5
A7A
330
1F
100
AcDbEntity
  8
0
100
AcDbLine
 10
216.3074465310952
 20
162.2412917826
 30
0.0
 11
216.3074465310952
 21
243.2412917826
 31
0.0
  0
ARC
  5
A7B
330
1F
100
AcDbEntity
  8
0
100
AcDbCircle
 10
214.3074465310952
 20
243.2412917826
 30
0.0
 40
2.000000000000065
100
AcDbArc
 50
0.0
 51
23.57817847819988
  0
LINE
  5
A7C
330
1F
100
AcDbEntity
  8
0
100
AcDbLine
 10
214.3074465310952
 20
161.4412917826
 30
0.0
 11
216.1404768089952
 21
161.4412917826
 31
0.0
  0
LINE
  5
A7D
330
1F
100
AcDbEntity
  8
0
100
AcDbLine
 10
216.1404768089952
 20
244.0412917826
 30
0.0
 11
214.3074465310952
 21
244.0412917826
 31
0.0
  0
LINE
  5
A7E
330
1F
100
AcDbEntity
  8
0
100
AcDbLine
 10
210.6074465310951
 20
244.2412917826
 30
0.0
 11
210.6074465310951
 21
245.2412917826
 31
0.0
  0
LINE
  5
A7F
330
1F
100
AcDbEntity
  8
0
100
AcDbLine
 10
214.3074465310952
 20
245.2412917826
 30
0.0
 11
210.6074465310951
 21
245.2412917826
 31
0.0
  0
LINE
  5
A80
330
1F
100
AcDbEntity
  8
0
100
AcDbLine
 10
214.8074465310952
 20
244.2412917826
 30
0.0
 11
210.6074465310951
 21
244.2412917826
 31
0.0
  0
ARC
  5
A81
330
1F
100
AcDbEntity
  8
0
100
AcDbCircle
 10
214.8074465310952
 20
243.7412917826
 30
0.0
 40
0.5000000000000966
100
AcDbArc
 50
36.86989764579973
 51
90.0
  0
ARC
  5
A82
330
1F
100
AcDbEntity
  8
0
100
AcDbCircle
 10
214.3074465310952
 20
243.2412917826
 30
0.0
 40
2.000000000000117
100
AcDbArc
 50
23.57817847819997
 51
90.0
  0
ARC
  5
A83
330
1F
100
AcDbEntity
  8
0
100
AcDbCircle
 10
214.8074465310952
 20
161.7412917826
 30
0.0
 40
0.5000000000000341
100
AcDbArc
 50
270.0
 51
323.130102354199
  0
ARC
  5
A84
330
1F
100
AcDbEntity
  8
0
100
AcDbCircle
 10
214.3074465310952
 20
162.2412917826
 30
0.0
 40
2.000000000000002
100
AcDbArc
 50
270.0
 51
336.4218215217994
  0
LINE
  5
A85
330
1F
100
AcDbEntity
  8
0
100
AcDbLine
 10
214.8074465310952
 20
161.2412917826
 30
0.0
 11
210.6074465310951
 21
161.2412917826
 31
0.0
  0
LINE
  5
A86
330
1F
100
AcDbEntity
  8
0
100
AcDbLine
 10
214.3074465310952
 20
160.2412917826
 30
0.0
 11
210.6074465310951
 21
160.2412917826
 31
0.0
  0
LINE
  5
A87
330
1F
100
AcDbEntity
  8
0
100
AcDbLine
 10
210.6074465310951
 20
160.2412917826
 30
0.0
 11
210.6074465310951
 21
161.2412917826
 31
0.0
  0
LINE
  5
A88
330
1F
100
AcDbEntity
  8
0
100
AcDbLine
 10
274.8074465310952
 20
334.0412917826
 30
0.0
 11
274.8074465310952
 21
249.0412917826
 31
0.0
  0
LINE
  5
A89
330
1F
100
AcDbEntity
  8
0
100
AcDbLine
 10
274.8074465310952
 20
334.0412917826
 30
0.0
 11
272.6074465310951
 21
334.0412917826
 31
0.0
  0
LINE
  5
A8A
330
1F
100
AcDbEntity
  8
0
100
AcDbLine
 10
235.0074465310952
 20
334.0412917826
 30
0.0
 11
233.2576485531952
 21
334.0412917826
 31
0.0
  0
LINE
  5
A8B
330
1F
100
AcDbEntity
  8
0
100
AcDbLine
 10
274.8074465310952
 20
249.0412917826
 30
0.0
 11
272.6074465310951
 21
249.0412917826
 31
0.0
  0
LINE
  5
A8C
330
1F
100
AcDbEntity
  8
0
100
AcDbLine
 10
235.0074465310952
 20
249.0412917826
 30
0.0
 11
233.2576485531952
 21
249.0412917826
 31
0.0
  0
LINE
  5
A8D
330
1F
100
AcDbEntity
  8
0
100
AcDbLine
 10
233.2576485531952
 20
249.0412917826
 30
0.0
 11
232.7603876054952
 21
249.0412917826
 31
0.0
  0
LINE
  5
A8E
330
1F
100
AcDbEntity
  8
0
100
AcDbLine
 10
233.2576485531952
 20
334.0412917826
 30
0.0
 11
232.7603876054952
 21
334.0412917826
 31
0.0
  0
LINE
  5
A8F
330
1F
100
AcDbEntity
  8
0
100
AcDbLine
 10
232.7603876054952
 20
249.0412917826
 30
0.0
 11
232.4384971716952
 21
249.0412917826
 31
0.0
  0
LINE
  5
A90
330
1F
100
AcDbEntity
  8
0
100
AcDbLine
 10
232.7603876054952
 20
334.0412917826
 30
0.0
 11
232.4384971716952
 21
334.0412917826
 31
0.0
  0
LINE
  5
A91
330
1F
100
AcDbEntity
  8
0
100
AcDbLine
 10
232.4384971716952
 20
249.0412917826
 30
0.0
 11
224.3218032105952
 21
249.0412917826
 31
0.0
  0
LINE
  5
A92
330
1F
100
AcDbEntity
  8
0
100
AcDbLine
 10
232.4384971716952
 20
334.0412917826
 30
0.0
 11
224.3218032105952
 21
334.0412917826
 31
0.0
  0
LINE
  5
A93
330
1F
100
AcDbEntity
  8
0
100
AcDbLine
 10
224.3218032105952
 20
249.0412917826
 30
0.0
 11
214.7074465310952
 21
249.0412917826
 31
0.0
  0
LINE
  5
A94
330
1F
100
AcDbEntity
  8
0
100
AcDbLine
 10
224.3218032105952
 20
334.0412917826
 30
0.0
 11
214.7074465310952
 21
334.0412917826
 31
0.0
  0
LINE
  5
A95
330
1F
100
AcDbEntity
  8
0
100
AcDbLine
 10
213.3074465310952
 20
244.2412917826
 30
0.0
 11
210.8074465310952
 21
244.2412917826
 31
0.0
  0
LINE
  5
A96
330
1F
100
AcDbEntity
  8
0
100
AcDbLine
 10
210.8074465310952
 20
244.2412917826
 30
0.0
 11
210.3074465310952
 21
243.7412917826
 31
0.0
  0
LINE
  5
A97
330
1F
100
AcDbEntity
  8
0
100
AcDbLine
 10
210.3074465310952
 20
243.7412917826
 30
0.0
 11
210.3074465310952
 21
161.7412917826
 31
0.0
  0
LINE
  5
A98
330
1F
100
AcDbEntity
  8
0
100
AcDbLine
 10
210.8074465310952
 20
161.2412917826
 30
0.0
 11
210.3074465310952
 21
161.7412917826
 31
0.0
  0
LINE
  5
A99
330
1F
100
AcDbEntity
  8
0
100
AcDbLine
 10
213.3074465310952
 20
161.2412917826
 30
0.0
 11
210.8074465310952
 21
161.2412917826
 31
0.0
  0
LINE
  5
A9A
330
1F
100
AcDbEntity
  8
0
100
AcDbLine
 10
215.0074465310952
 20
244.0412917826
 30
0.0
 11
214.8074465310952
 21
244.2412917826
 31
0.0
  0
LINE
  5
A9B
330
1F
100
AcDbEntity
  8
0
100
AcDbLine
 10
215.0074465310952
 20
161.4412917826
 30
0.0
 11
214.8074465310952
 21
161.2412917826
 31
0.0
  0
LINE
  5
A9C
330
1F
100
AcDbEntity
  8
0
100
AcDbLine
 10
215.0574465310952
 20
160.2412917826
 30
0.0
 11
215.1780298343952
 21
160.2412917826
 31
0.0
  0
LINE
  5
A9D
330
1F
100
AcDbEntity
  8
0
100
AcDbLine
 10
215.0574465310952
 20
245.2412917826
 30
0.0
 11
215.1780298343952
 21
245.2412917826
 31
0.0
  0
LINE
  5
A9E
330
1F
100
AcDbEntity
  8
0
100
AcDbLine
 10
215.0574465310952
 20
245.2412917826
 30
0.0
 11
215.0574465310952
 21
245.0953414044
 31
0.0
  0
LINE
  5
A9F
330
1F
100
AcDbEntity
  8
0
100
AcDbLine
 10
215.0574465310952
 20
244.1743044845
 30
0.0
 11
215.0574465310952
 21
244.0412917826
 31
0.0
  0
LINE
  5
AA0
330
1F
100
AcDbEntity
  8
0
100
AcDbLine
 10
215.0574465310952
 20
160.2412917826
 30
0.0
 11
215.0574465310952
 21
160.3872421609
 31
0.0
  0
LINE
  5
AA1
330
1F
100
AcDbEntity
  8
0
100
AcDbLine
 10
215.0574465310952
 20
161.3082790807
 30
0.0
 11
215.0574465310952
 21
161.4412917826
 31
0.0
  0
LINE
  5
AA2
330
1F
100
AcDbEntity
  8
0
100
AcDbLine
 10
225.2349402049952
 20
160.2412917826
 30
0.0
 11
223.3551522071952
 21
160.2412917826
 31
0.0
  0
LINE
  5
AA3
330
1F
100
AcDbEntity
  8
0
100
AcDbLine
 10
225.2349402049952
 20
245.2412917826
 30
0.0
 11
223.3551522071952
 21
245.2412917826
 31
0.0
  0
LINE
  5
AA4
330
1F
100
AcDbEntity
  8
0
100
AcDbLine
 10
210.5074465310952
 20
160.2412917826
 30
0.0
 11
210.6074465310951
 21
160.2412917826
 31
0.0
  0
LINE
  5
AA5
330
1F
100
AcDbEntity
  8
0
100
AcDbLine
 10
210.5074465310952
 20
161.5412917826
 30
0.0
 11
210.5074465310952
 21
160.2412917826
 31
0.0
  0
LINE
  5
AA6
330
1F
100
AcDbEntity
  8
0
100
AcDbLine
 10
210.5074465310952
 20
245.2412917826
 30
0.0
 11
210.6074465310951
 21
245.2412917826
 31
0.0
  0
LINE
  5
AA7
330
1F
100
AcDbEntity
  8
0
100
AcDbLine
 10
210.5074465310952
 20
243.9412917826
 30
0.0
 11
210.5074465310952
 21
245.2412917826
 31
0.0
  0
CIRCLE
  5
AA8
330
1F
100
AcDbEntity
  8
0
100
AcDbCircle
 10
220.8074465310952
 20
170.7412917826
 30
0.0
 40
1.375
  0
CIRCLE
  5
AA9
330
1F
100
AcDbEntity
  8
0
100
AcDbCircle
 10
220.8074465310952
 20
170.7412917826
 30
0.0
 40
1.875
  0
CIRCLE
  5
AAA
330
1F
100
AcDbEntity
  8
0
100
AcDbCircle
 10
220.8074465310952
 20
220.7412917826
 30
0.0
 40
1.349999999999966
  0
LINE
  5
AAB
330
1F
100
AcDbEntity
  8
0
100
AcDbLine
 10
216.5074465310952
 20
245.2412917826
 30
0.0
 11
216.5074465310952
 21
160.2412917826
 31
0.0
  0
LINE
  5
AAC
330
1F
100
AcDbEntity
  8
0
100
AcDbLine
 10
223.3551522071952
 20
160.2412917826
 30
0.0
 11
216.5074465310952
 21
160.2412917826
 31
0.0
  0
CIRCLE
  5
AAD
330
1F
100
AcDbEntity
  8
0
100
AcDbCircle
 10
220.8074465310952
 20
189.3412917826
 30
0.0
 40
1.349999999999966
  0
LINE
  5
AAE
330
1F
100
AcDbEntity
  8
0
100
AcDbLine
 10
223.3551522071952
 20
245.2412917826
 30
0.0
 11
216.5074465310952
 21
245.2412917826
 31
0.0
  0
CIRCLE
  5
AAF
330
1F
100
AcDbEntity
  8
0
100
AcDbCircle
 10
220.8074465310952
 20
220.7412917826
 30
0.0
 40
0.8499999999999659
  0
CIRCLE
  5
AB0
330
1F
100
AcDbEntity
  8
0
100
AcDbCircle
 10
220.8074465310952
 20
189.3412917826
 30
0.0
 40
0.8499999999999659
  0
LINE
  5
AB1
330
1F
100
AcDbEntity
  8
0
100
AcDbLine
 10
216.5074465310952
 20
160.2412917826
 30
0.0
 11
216.3877468647952
 21
160.2412917826
 31
0.0
  0
LINE
  5
AB2
330
1F
100
AcDbEntity
  8
0
100
AcDbLine
 10
216.5074465310952
 20
245.2412917826
 30
0.0
 11
216.3877468647952
 21
245.2412917826
 31
0.0
  0
LINE
  5
AB3
330
1F
100
AcDbEntity
  8
0
100
AcDbLine
 10
215.1780298343952
 20
160.2412917826
 30
0.0
 11
216.3877468647952
 21
160.2412917826
 31
0.0
  0
LINE
  5
AB4
330
1F
100
AcDbEntity
  8
0
100
AcDbLine
 10
215.1780298343952
 20
245.2412917826
 30
0.0
 11
216.3877468647952
 21
245.2412917826
 31
0.0
  0
LINE
  5
AB5
330
1F
100
AcDbEntity
  8
0
100
AcDbLine
 10
225.2349402049952
 20
160.2412917826
 30
0.0
 11
235.1029822640952
 21
160.2412917826
 31
0.0
  0
LINE
  5
AB6
330
1F
100
AcDbEntity
  8
0
100
AcDbLine
 10
225.2349402049952
 20
245.2412917826
 30
0.0
 11
235.1029822640952
 21
245.2412917826
 31
0.0
  0
LINE
  5
AB7
330
1F
100
AcDbEntity
  8
0
100
AcDbLine
 10
210.3074465310952
 20
245.2412917826
 30
0.0
 11
210.3074465310952
 21
243.7412917826
 31
0.0
  0
LINE
  5
AB8
330
1F
100
AcDbEntity
  8
0
100
AcDbLine
 10
210.3074465310952
 20
161.7412917826
 30
0.0
 11
210.3074465310952
 21
160.2412917826
 31
0.0
  0
LINE
  5
AB9
330
1F
100
AcDbEntity
  8
0
100
AcDbLine
 10
210.3074465310952
 20
160.2412917826
 30
0.0
 11
210.5074465310952
 21
160.2412917826
 31
0.0
  0
LINE
  5
ABA
330
1F
100
AcDbEntity
  8
0
100
AcDbLine
 10
210.3074465310952
 20
245.2412917826
 30
0.0
 11
210.5074465310952
 21
245.2412917826
 31
0.0
  0
LINE
  5
ABB
330
1F
100
AcDbEntity
  8
0
100
AcDbLine
 10
242.9074465310952
 20
160.2412917826
 30
0.0
 11
235.1029822640952
 21
160.2412917826
 31
0.0
  0
LINE
  5
ABC
330
1F
100
AcDbEntity
  8
0
100
AcDbLine
 10
235.1029822640952
 20
245.2412917826
 30
0.0
 11
242.9074465310952
 21
245.2412917826
 31
0.0
  0
LINE
  5
ABD
330
1F
100
AcDbEntity
  8
0
  6
Continuous
 62
     8
370
     0
100
AcDbLine
 10
235.8074465310952
 20
250.7912917826
 30
0.0
 11
235.8074465310952
 21
332.2912917826
 31
0.0
  0
LINE
  5
ABE
330
1F
100
AcDbEntity
  8
0
  6
Continuous
 62
     8
370
     0
100
AcDbLine
 10
235.8074465310952
 20
332.2912917826
 30
0.0
 11
271.8074465310952
 21
332.2912917826
 31
0.0
  0
LINE
  5
ABF
330
1F
100
AcDbEntity
  8
0
  6
Continuous
 62
     8
370
     0
100
AcDbLine
 10
271.8074465310952
 20
250.7912917826
 30
0.0
 11
235.8074465310952
 21
250.7912917826
 31
0.0
  0
LINE
  5
AC0
330
1F
100
AcDbEntity
  8
0
  6
Continuous
 62
     8
370
     0
100
AcDbLine
 10
271.8074465310952
 20
332.2912917826
 30
0.0
 11
271.8074465310952
 21
250.7912917826
 31
0.0
  0
LINE
  5
AC1
330
1F
100
AcDbEntity
  8
0
  6
Continuous
 62
     8
370
     0
100
AcDbLine
 10
214.3074465310952
 20
244.0412917826
 30
0.0
 11
214.3074465310952
 21
161.4412917826
 31
0.0
  0
LINE
  5
AC2
330
1F
100
AcDbEntity
  8
0
  6
Continuous
 62
     8
370
     0
100
AcDbLine
 10
233.2576485531952
 20
334.0412917826
 30
0.0
 11
233.2576485531952
 21
249.0412917826
 31
0.0
  0
LINE
  5
AC3
330
1F
100
AcDbEntity
  8
0
  6
Continuous
 62
     8
370
     0
100
AcDbLine
 10
232.7603876054952
 20
334.0412917826
 30
0.0
 11
232.7603876054952
 21
249.0412917826
 31
0.0
  0
LINE
  5
AC4
330
1F
100
AcDbEntity
  8
0
  6
Continuous
 62
     8
370
     0
100
AcDbLine
 10
232.4384971716952
 20
334.0412917826
 30
0.0
 11
232.4384971716952
 21
249.0412917826
 31
0.0
  0
LINE
  5
AC5
330
1F
100
AcDbEntity
  8
0
  6
Continuous
 62
     8
370
     0
100
AcDbLine
 10
224.3218032105952
 20
334.0412917826
 30
0.0
 11
224.3218032105952
 21
249.0412917826
 31
0.0
  0
LINE
  5
AC6
330
1F
100
AcDbEntity
  8
0
  6
Continuous
 62
     8
370
     0
100
AcDbLine
 10
213.3074465310952
 20
244.2412917826
 30
0.0
 11
213.3074465310952
 21
244.0412917826
 31
0.0
  0
LINE
  5
AC7
330
1F
100
AcDbEntity
  8
0
  6
Continuous
 62
     8
370
     0
100
AcDbLine
 10
213.3074465310952
 20
161.4412917826
 30
0.0
 11
213.3074465310952
 21
161.2412917826
 31
0.0
  0
LINE
  5
AC8
330
1F
100
AcDbEntity
  8
0
  6
Continuous
 62
     8
370
     0
100
AcDbLine
 10
215.1780298343952
 20
245.2412917826
 30
0.0
 11
215.1780298343952
 21
245.0418707762
 31
0.0
  0
LINE
  5
AC9
330
1F
100
AcDbEntity
  8
0
  6
Continuous
 62
     8
370
     0
100
AcDbLine
 10
215.1780298343952
 20
244.0769523482
 30
0.0
 11
215.1780298343952
 21
244.0412917826
 31
0.0
  0
LINE
  5
ACA
330
1F
100
AcDbEntity
  8
0
  6
Continuous
 62
     8
370
     0
100
AcDbLine
 10
215.1780298343952
 20
161.4412917826
 30
0.0
 11
215.1780298343952
 21
161.405631217
 31
0.0
  0
LINE
  5
ACB
330
1F
100
AcDbEntity
  8
0
  6
Continuous
 62
     8
370
     0
100
AcDbLine
 10
215.1780298343952
 20
160.4407127891
 30
0.0
 11
215.1780298343952
 21
160.2412917826
 31
0.0
  0
LINE
  5
ACC
330
1F
100
AcDbEntity
  8
0
  6
Continuous
 62
     8
370
     0
100
AcDbLine
 10
223.3551522071952
 20
245.2412917826
 30
0.0
 11
223.3551522071952
 21
160.2412917826
 31
0.0
  0
LINE
  5
ACD
330
1F
100
AcDbEntity
  8
0
  6
Continuous
 62
     8
370
     0
100
AcDbLine
 10
225.2349402049952
 20
245.2412917826
 30
0.0
 11
225.2349402049952
 21
160.2412917826
 31
0.0
  0
LINE
  5
ACE
330
1F
100
AcDbEntity
  8
0
  6
Continuous
 62
     8
370
     0
100
AcDbLine
 10
216.3877468647952
 20
245.2412917826
 30
0.0
 11
216.3877468647952
 21
160.2412917826
 31
0.0
  0
LINE
  5
ACF
330
1F
100
AcDbEntity
  8
0
  6
Continuous
 62
     8
370
     0
100
AcDbLine
 10
235.1029822640952
 20
245.2412917826
 30
0.0
 11
235.1029822640952
 21
160.2412917826
 31
0.0
  0
CIRCLE
  5
AD0
330
1F
100
AcDbEntity
  8
ASSI
100
AcDbCircle
 10
253.8074465310952
 20
314.0412917826
 30
0.0
 40
10.00000000000003
  0
CIRCLE
  5
AD1
330
1F
100
AcDbEntity
  8
ASSI
100
AcDbCircle
 10
253.8074465310952
 20
269.0412917826
 30
0.0
 40
10.00000000000003
  0
LINE
  5
AD2
330
1F
100
AcDbEntity
  8
ASSI
100
AcDbLine
 10
228.8074465310952
 20
147.0556196717
 30
0.0
 11
228.8074465310952
 21
344.8891952075
 31
0.0
  0
LINE
  5
AD3
330
1F
100
AcDbEntity
  8
0
100
AcDbLine
 10
244.3074465310952
 20
70.5823522977
 30
0.0
 11
244.3074465310952
 21
77.5823522977
 31
0.0
  0
LINE
  5
AD4
330
1F
100
AcDbEntity
  8
0
100
AcDbLine
 10
263.3074465310952
 20
77.5823522977
 30
0.0
 11
263.3074465310952
 21
70.5823522977
 31
0.0
  0
LINE
  5
AD5
330
1F
100
AcDbEntity
  8
0
100
AcDbLine
 10
250.8074465310952
 20
69.5823522977
 30
0.0
 11
250.8074465310952
 21
70.0823522977
 31
0.0
  0
LINE
  5
AD6
330
1F
100
AcDbEntity
  8
0
100
AcDbLine
 10
256.8074465310952
 20
70.0823522977
 30
0.0
 11
256.8074465310952
 21
69.5823522977
 31
0.0
  0
LINE
  5
AD7
330
1F
100
AcDbEntity
  8
0
100
AcDbLine
 10
245.9074465310952
 20
70.0823522977
 30
0.0
 11
245.9074465310952
 21
70.5823522977
 31
0.0
  0
LINE
  5
AD8
330
1F
100
AcDbEntity
  8
0
100
AcDbLine
 10
261.7074465310952
 20
70.5823522977
 30
0.0
 11
261.7074465310952
 21
70.0823522977
 31
0.0
  0
LINE
  5
AD9
330
1F
100
AcDbEntity
  8
0
100
AcDbLine
 10
222.3074465310952
 20
88.716326894
 30
0.0
 11
222.3074465310952
 21
90.4483777015
 31
0.0
  0
LINE
  5
ADA
330
1F
100
AcDbEntity
  8
0
100
AcDbLine
 10
220.8074465310952
 20
87.8503014902
 30
0.0
 11
222.3074465310952
 21
88.716326894
 31
0.0
  0
LINE
  5
ADB
330
1F
100
AcDbEntity
  8
0
100
AcDbLine
 10
219.3074465310952
 20
88.716326894
 30
0.0
 11
220.8074465310952
 21
87.8503014902
 31
0.0
  0
LINE
  5
ADC
330
1F
100
AcDbEntity
  8
0
100
AcDbLine
 10
219.3074465310952
 20
90.4483777015
 30
0.0
 11
219.3074465310952
 21
88.716326894
 31
0.0
  0
LINE
  5
ADD
330
1F
100
AcDbEntity
  8
0
100
AcDbLine
 10
220.8074465310952
 20
91.3144031053
 30
0.0
 11
219.3074465310952
 21
90.4483777015
 31
0.0
  0
LINE
  5
ADE
330
1F
100
AcDbEntity
  8
0
100
AcDbLine
 10
222.3074465310952
 20
90.4483777015
 30
0.0
 11
220.8074465310952
 21
91.3144031053
 31
0.0
  0
CIRCLE
  5
ADF
330
1F
100
AcDbEntity
  8
0
100
AcDbCircle
 10
220.8074465310952
 20
89.5823522977
 30
0.0
 40
2.599999999999994
  0
CIRCLE
  5
AE0
330
1F
100
AcDbEntity
  8
0
100
AcDbCircle
 10
220.8074465310952
 20
89.5823522977
 30
0.0
 40
2.899999999999991
  0
ARC
  5
AE1
330
1F
100
AcDbEntity
  8
0
100
AcDbCircle
 10
220.8074465310952
 20
89.5823522977
 30
0.0
 40
3.450000000000003
100
AcDbArc
 50
90.0
 51
49.8539527991001
  0
LWPOLYLINE
  5
AE2
330
1F
100
AcDbEntity
  8
0
100
AcDbPolyline
 90
        3
 70
   128
 43
0.0
 10
221.6574465310952
 20
92.9260029972
 10
221.5751437531952
 20
92.9458535948
 10
220.8074465310952
 20
93.0323522977
  0
ARC
  5
AE3
330
1F
100
AcDbEntity
  8
0
100
AcDbCircle
 10
220.8074465310952
 20
89.5823522977
 30
0.0
 40
1.5
100
AcDbArc
 50
60.00000000000001
 51
120.0
  0
ARC
  5
AE4
330
1F
100
AcDbEntity
  8
0
100
AcDbCircle
 10
220.8074465310952
 20
89.5823522977
 30
0.0
 40
1.5
100
AcDbArc
 50
120.0
 51
180.0
  0
ARC
  5
AE5
330
1F
100
AcDbEntity
  8
0
100
AcDbCircle
 10
220.8074465310952
 20
89.5823522977
 30
0.0
 40
1.500000000000012
100
AcDbArc
 50
240.0000000000002
 51
299.9999999999997
  0
ARC
  5
AE6
330
1F
100
AcDbEntity
  8
0
100
AcDbCircle
 10
220.8074465310952
 20
89.5823522977
 30
0.0
 40
1.500000000000012
100
AcDbArc
 50
180.0
 51
240.0000000000002
  0
ARC
  5
AE7
330
1F
100
AcDbEntity
  8
0
100
AcDbCircle
 10
220.8074465310952
 20
89.5823522977
 30
0.0
 40
1.5
100
AcDbArc
 50
0.0
 51
60.00000000000001
  0
ARC
  5
AE8
330
1F
100
AcDbEntity
  8
0
100
AcDbCircle
 10
220.8074465310952
 20
89.5823522977
 30
0.0
 40
1.500000000000012
100
AcDbArc
 50
299.9999999999997
 51
0.0
  0
LINE
  5
AE9
330
1F
100
AcDbEntity
  8
0
100
AcDbLine
 10
244.3074465310952
 20
70.5823522977
 30
0.0
 11
263.3074465310952
 21
70.5823522977
 31
0.0
  0
LINE
  5
AEA
330
1F
100
AcDbEntity
  8
0
100
AcDbLine
 10
272.6074465310951
 20
69.2823522977
 30
0.0
 11
235.0074465310952
 21
69.2823522977
 31
0.0
  0
LINE
  5
AEB
330
1F
100
AcDbEntity
  8
0
100
AcDbLine
 10
272.6074465310951
 20
64.0823522977
 30
0.0
 11
272.6074465310951
 21
69.2823522977
 31
0.0
  0
LINE
  5
AEC
330
1F
100
AcDbEntity
  8
0
100
AcDbLine
 10
235.0074465310952
 20
64.0823522977
 30
0.0
 11
235.0074465310952
 21
69.2823522977
 31
0.0
  0
ARC
  5
AED
330
1F
100
AcDbEntity
  8
0
100
AcDbCircle
 10
235.8074465310952
 20
64.0823522977
 30
0.0
 40
2.000000000000007
100
AcDbArc
 50
246.4218215217997
 51
270.0
  0
LINE
  5
AEE
330
1F
100
AcDbEntity
  8
0
100
AcDbLine
 10
235.8074465310952
 20
62.0823522977
 30
0.0
 11
271.8074465310952
 21
62.0823522977
 31
0.0
  0
ARC
  5
AEF
330
1F
100
AcDbEntity
  8
0
100
AcDbCircle
 10
271.8074465310952
 20
64.0823522977
 30
0.0
 40
2.000000000000007
100
AcDbArc
 50
270.0
 51
293.5781784782003
  0
LINE
  5
AF0
330
1F
100
AcDbEntity
  8
0
100
AcDbLine
 10
272.6074465310951
 20
62.2493220198
 30
0.0
 11
272.6074465310951
 21
64.0823522977
 31
0.0
  0
LINE
  5
AF1
330
1F
100
AcDbEntity
  8
0
100
AcDbLine
 10
235.0074465310952
 20
64.0823522977
 30
0.0
 11
235.0074465310952
 21
62.2493220198
 31
0.0
  0
LINE
  5
AF2
330
1F
100
AcDbEntity
  8
0
100
AcDbLine
 10
234.8074465310952
 20
69.2823522977
 30
0.0
 11
234.8074465310952
 21
63.5823522977
 31
0.0
  0
LINE
  5
AF3
330
1F
100
AcDbEntity
  8
0
100
AcDbLine
 10
233.8074465310952
 20
69.2823522977
 30
0.0
 11
234.8074465310952
 21
69.2823522977
 31
0.0
  0
LINE
  5
AF4
330
1F
100
AcDbEntity
  8
0
100
AcDbLine
 10
233.8074465310952
 20
64.0823522977
 30
0.0
 11
233.8074465310952
 21
69.2823522977
 31
0.0
  0
ARC
  5
AF5
330
1F
100
AcDbEntity
  8
0
100
AcDbCircle
 10
235.8074465310952
 20
64.0823522977
 30
0.0
 40
2.0
100
AcDbArc
 50
180.0
 51
246.4218215217997
  0
ARC
  5
AF6
330
1F
100
AcDbEntity
  8
0
100
AcDbCircle
 10
235.3074465310952
 20
63.5823522977
 30
0.0
 40
0.5000000000000057
100
AcDbArc
 50
180.0
 51
233.1301023542022
  0
LINE
  5
AF7
330
1F
100
AcDbEntity
  8
0
100
AcDbLine
 10
273.8074465310952
 20
64.0823522977
 30
0.0
 11
273.8074465310952
 21
69.2823522977
 31
0.0
  0
LINE
  5
AF8
330
1F
100
AcDbEntity
  8
0
100
AcDbLine
 10
272.8074465310952
 20
69.2823522977
 30
0.0
 11
273.8074465310952
 21
69.2823522977
 31
0.0
  0
ARC
  5
AF9
330
1F
100
AcDbEntity
  8
0
100
AcDbCircle
 10
272.3074465310952
 20
63.5823522977
 30
0.0
 40
0.5000000000000057
100
AcDbArc
 50
306.8698976457977
 51
0.0
  0
LINE
  5
AFA
330
1F
100
AcDbEntity
  8
0
100
AcDbLine
 10
272.8074465310952
 20
63.5823522977
 30
0.0
 11
272.8074465310952
 21
69.2823522977
 31
0.0
  0
ARC
  5
AFB
330
1F
100
AcDbEntity
  8
0
100
AcDbCircle
 10
271.8074465310952
 20
64.0823522977
 30
0.0
 40
2.000000000000007
100
AcDbArc
 50
293.5781784782003
 51
0.0
  0
LINE
  5
AFC
330
1F
100
AcDbEntity
  8
0
100
AcDbLine
 10
272.3074465310952
 20
69.5823522977
 30
0.0
 11
272.3074465310952
 21
69.2823522977
 31
0.0
  0
LINE
  5
AFD
330
1F
100
AcDbEntity
  8
0
100
AcDbLine
 10
272.3074465310952
 20
69.5823522977
 30
0.0
 11
270.3074465310952
 21
69.5823522977
 31
0.0
  0
LINE
  5
AFE
330
1F
100
AcDbEntity
  8
0
100
AcDbLine
 10
270.3074465310952
 20
69.5823522977
 30
0.0
 11
237.3074465310952
 21
69.5823522977
 31
0.0
  0
LINE
  5
AFF
330
1F
100
AcDbEntity
  8
0
100
AcDbLine
 10
235.3074465310952
 20
69.5823522977
 30
0.0
 11
235.3074465310952
 21
69.2823522977
 31
0.0
  0
LINE
  5
B00
330
1F
100
AcDbEntity
  8
0
100
AcDbLine
 10
237.3074465310952
 20
69.5823522977
 30
0.0
 11
235.3074465310952
 21
69.5823522977
 31
0.0
  0
LINE
  5
B01
330
1F
100
AcDbEntity
  8
0
100
AcDbLine
 10
273.8074465310952
 20
78.0823522977
 30
0.0
 11
273.8074465310952
 21
77.5823522977
 31
0.0
  0
LINE
  5
B02
330
1F
100
AcDbEntity
  8
0
100
AcDbLine
 10
273.8074465310952
 20
77.5823522977
 30
0.0
 11
271.8074465310952
 21
77.5823522977
 31
0.0
  0
LINE
  5
B03
330
1F
100
AcDbEntity
  8
0
100
AcDbLine
 10
233.8074465310952
 20
78.0823522977
 30
0.0
 11
233.8074465310952
 21
77.5823522977
 31
0.0
  0
LINE
  5
B04
330
1F
100
AcDbEntity
  8
0
100
AcDbLine
 10
235.8074465310952
 20
77.5823522977
 30
0.0
 11
233.8074465310952
 21
77.5823522977
 31
0.0
  0
LINE
  5
B05
330
1F
100
AcDbEntity
  8
0
100
AcDbLine
 10
271.8074465310952
 20
77.5823522977
 30
0.0
 11
235.8074465310952
 21
77.5823522977
 31
0.0
  0
CIRCLE
  5
B06
330
1F
100
AcDbEntity
  8
0
100
AcDbCircle
 10
228.8074465310952
 20
105.0823522977
 30
0.0
 40
14.0
  0
ARC
  5
B07
330
1F
100
AcDbEntity
  8
0
100
AcDbCircle
 10
214.3074465310952
 20
56.8823522977
 30
0.0
 40
2.000000000000057
100
AcDbArc
 50
336.4218215217999
 51
0.0
  0
LINE
  5
B08
330
1F
100
AcDbEntity
  8
0
100
AcDbLine
 10
216.3074465310952
 20
56.8823522977
 30
0.0
 11
216.3074465310952
 21
80.3823522977
 31
0.0
  0
LINE
  5
B09
330
1F
100
AcDbEntity
  8
0
100
AcDbLine
 10
214.3074465310952
 20
56.0823522977
 30
0.0
 11
216.1404768089952
 21
56.0823522977
 31
0.0
  0
LINE
  5
B0A
330
1F
100
AcDbEntity
  8
0
100
AcDbLine
 10
216.3074465310952
 20
80.3823522977
 30
0.0
 11
214.3074465310952
 21
80.3823522977
 31
0.0
  0
LINE
  5
B0B
330
1F
100
AcDbEntity
  8
0
100
AcDbLine
 10
210.6074465310951
 20
56.0823522977
 30
0.0
 11
210.6074465310951
 21
80.3823522977
 31
0.0
  0
LINE
  5
B0C
330
1F
100
AcDbEntity
  8
0
100
AcDbLine
 10
214.3074465310952
 20
56.0823522977
 30
0.0
 11
210.6074465310951
 21
56.0823522977
 31
0.0
  0
LINE
  5
B0D
330
1F
100
AcDbEntity
  8
0
100
AcDbLine
 10
214.3074465310952
 20
80.3823522977
 30
0.0
 11
210.6074465310951
 21
80.3823522977
 31
0.0
  0
LINE
  5
B0E
330
1F
100
AcDbEntity
  8
0
100
AcDbLine
 10
214.8074465310952
 20
55.8823522977
 30
0.0
 11
210.6074465310951
 21
55.8823522977
 31
0.0
  0
LINE
  5
B0F
330
1F
100
AcDbEntity
  8
0
100
AcDbLine
 10
210.6074465310951
 20
54.8823522977
 30
0.0
 11
210.6074465310951
 21
55.8823522977
 31
0.0
  0
LINE
  5
B10
330
1F
100
AcDbEntity
  8
0
100
AcDbLine
 10
214.3074465310952
 20
54.8823522977
 30
0.0
 11
210.6074465310951
 21
54.8823522977
 31
0.0
  0
ARC
  5
B11
330
1F
100
AcDbEntity
  8
0
100
AcDbCircle
 10
214.3074465310952
 20
56.8823522977
 30
0.0
 40
2.000000000000057
100
AcDbArc
 50
270.0
 51
336.4218215217999
  0
ARC
  5
B12
330
1F
100
AcDbEntity
  8
0
100
AcDbCircle
 10
214.8074465310952
 20
56.3823522977
 30
0.0
 40
0.5000000000000213
100
AcDbArc
 50
270.0
 51
323.1301023542009
  0
LINE
  5
B13
330
1F
100
AcDbEntity
  8
0
100
AcDbLine
 10
234.8074465310952
 20
68.0823522977
 30
0.0
 11
235.0074465310952
 21
68.0823522977
 31
0.0
  0
LINE
  5
B14
330
1F
100
AcDbEntity
  8
0
100
AcDbLine
 10
234.8074465310952
 20
68.0823522977
 30
0.0
 11
235.0074465310952
 21
68.2823522977
 31
0.0
  0
ARC
  5
B15
330
1F
100
AcDbEntity
  8
0
100
AcDbCircle
 10
236.8074465310952
 20
65.0823522977
 30
0.0
 40
2.000000000000021
100
AcDbArc
 50
180.0
 51
205.8419327632002
  0
ARC
  5
B16
330
1F
100
AcDbEntity
  8
0
100
AcDbCircle
 10
270.8074465310952
 20
65.0823522977
 30
0.0
 40
2.000000000000029
100
AcDbArc
 50
334.1580672368999
 51
0.0
  0
LINE
  5
B17
330
1F
100
AcDbEntity
  8
0
100
AcDbLine
 10
272.6074465310951
 20
68.0823522977
 30
0.0
 11
272.8074465310952
 21
68.0823522977
 31
0.0
  0
LINE
  5
B18
330
1F
100
AcDbEntity
  8
0
100
AcDbLine
 10
272.8074465310952
 20
68.0823522977
 30
0.0
 11
272.6074465310951
 21
68.2823522977
 31
0.0
  0
LINE
  5
B19
330
1F
100
AcDbEntity
  8
0
100
AcDbLine
 10
274.8074465310952
 20
80.8197810447
 30
0.0
 11
274.8074465310952
 21
78.0823522977
 31
0.0
  0
ARC
  5
B1A
330
1F
100
AcDbEntity
  8
0
100
AcDbCircle
 10
272.8074465310952
 20
80.8197810447
 30
0.0
 40
2.000000000000002
100
AcDbArc
 50
0.0
 51
76.00000000000048
  0
LINE
  5
B1B
330
1F
100
AcDbEntity
  8
0
100
AcDbLine
 10
245.6985458531952
 20
89.6400163687
 30
0.0
 11
273.2912903222952
 21
82.7603724973
 31
0.0
  0
ARC
  5
B1C
330
1F
100
AcDbEntity
  8
0
100
AcDbCircle
 10
247.2710381745952
 20
95.9469385895
 30
0.0
 40
6.500000000000028
100
AcDbArc
 50
153.6747206313001
 51
256.0000000000002
  0
ARC
  5
B1D
330
1F
100
AcDbEntity
  8
0
100
AcDbCircle
 10
228.8074465310952
 20
105.0823522977
 30
0.0
 40
14.10000000000001
100
AcDbArc
 50
333.6747206313
 51
251.4500829202999
  0
ARC
  5
B1E
330
1F
100
AcDbEntity
  8
0
100
AcDbCircle
 10
220.5042344272952
 20
80.3383294081
 30
0.0
 40
12.00000000000002
100
AcDbArc
 50
6.00000000000004
 51
71.45008292030002
  0
LINE
  5
B1F
330
1F
100
AcDbEntity
  8
0
100
AcDbLine
 10
232.7603876054952
 20
78.5300880661
 30
0.0
 11
232.4384971716952
 21
81.5926709674
 31
0.0
  0
ARC
  5
B20
330
1F
100
AcDbEntity
  8
0
100
AcDbCircle
 10
233.2576485531952
 20
78.5823522977
 30
0.0
 40
0.5000000000000613
100
AcDbArc
 50
185.9999999999994
 51
270.0
  0
LINE
  5
B21
330
1F
100
AcDbEntity
  8
0
100
AcDbLine
 10
274.8074465310952
 20
78.0823522977
 30
0.0
 11
233.2576485531952
 21
78.0823522977
 31
0.0
  0
LINE
  5
B22
330
1F
100
AcDbEntity
  8
0
100
AcDbLine
 10
245.9074465310952
 20
70.0823522977
 30
0.0
 11
261.7074465310952
 21
70.0823522977
 31
0.0
  0
ARC
  5
B23
330
1F
100
AcDbEntity
  8
0
100
AcDbCircle
 10
220.8074465310952
 20
89.5823522977
 30
0.0
 40
3.933012701892238
100
AcDbArc
 50
90.9100109780002
 51
270.0
  0
ARC
  5
B24
330
1F
100
AcDbEntity
  8
0
100
AcDbCircle
 10
220.8074465310952
 20
89.5823522977
 30
0.0
 40
3.933012701892238
100
AcDbArc
 50
270.0
 51
34.49084459939991
  0
ARC
  5
B25
330
1F
100
AcDbEntity
  8
0
100
AcDbCircle
 10
215.4074465310952
 20
80.0823522977
 30
0.0
 40
0.3500000000000113
100
AcDbArc
 50
130.9557736130036
 51
180.0
  0
ARC
  5
B26
330
1F
100
AcDbEntity
  8
0
100
AcDbCircle
 10
215.8091122727952
 20
79.6195677374
 30
0.0
 40
0.9627845603671251
100
AcDbArc
 50
53.05836924480105
 51
130.9557736130012
  0
ARC
  5
B27
330
1F
100
AcDbEntity
  8
0
100
AcDbCircle
 10
216.2074465310952
 20
80.1492970949
 30
0.0
 40
0.3000000000000114
100
AcDbArc
 50
0.0
 51
53.05836924479656
  0
LINE
  5
B28
330
1F
100
AcDbEntity
  8
0
100
AcDbLine
 10
216.5074465310952
 20
80.1492970949
 30
0.0
 11
216.5074465310952
 21
80.0823522977
 31
0.0
  0
LINE
  5
B29
330
1F
100
AcDbEntity
  8
0
100
AcDbLine
 10
223.3551522071952
 20
80.0823522977
 30
0.0
 11
216.5074465310952
 21
80.0823522977
 31
0.0
  0
ARC
  5
B2A
330
1F
100
AcDbEntity
  8
0
100
AcDbCircle
 10
223.3551522071952
 20
82.0823522977
 30
0.0
 40
2.0
100
AcDbArc
 50
270.0
 51
340.0337625297997
  0
ARC
  5
B2B
330
1F
100
AcDbEntity
  8
0
100
AcDbCircle
 10
244.0328201832952
 20
74.5700925134
 30
0.0
 40
20.00000000000001
100
AcDbArc
 50
136.662808275
 51
160.0337625298001
  0
ARC
  5
B2C
330
1F
100
AcDbEntity
  8
0
100
AcDbCircle
 10
205.1434513137952
 20
109.6458301775
 30
0.0
 40
10.00000000000001
100
AcDbArc
 50
306.6553108059001
 51
349.0848006761
  0
ARC
  5
B2D
330
1F
100
AcDbEntity
  8
0
100
AcDbCircle
 10
212.3074465310952
 20
100.0189317918
 30
0.0
 40
2.0
100
AcDbArc
 50
126.6553108059001
 51
180.0
  0
LINE
  5
B2E
330
1F
100
AcDbEntity
  8
0
100
AcDbLine
 10
210.3074465310952
 20
100.0189317918
 30
0.0
 11
210.3074465310952
 21
91.0823522977
 31
0.0
  0
LINE
  5
B2F
330
1F
100
AcDbEntity
  8
0
100
AcDbLine
 10
210.3074465310952
 20
91.0823522977
 30
0.0
 11
210.5074465310952
 21
91.0823522977
 31
0.0
  0
LINE
  5
B30
330
1F
100
AcDbEntity
  8
0
100
AcDbLine
 10
210.5074465310952
 20
91.0823522977
 30
0.0
 11
210.5074465310952
 21
80.0823522977
 31
0.0
  0
LINE
  5
B31
330
1F
100
AcDbEntity
  8
0
100
AcDbLine
 10
210.5074465310952
 20
80.0823522977
 30
0.0
 11
215.0574465310952
 21
80.0823522977
 31
0.0
  0
ARC
  5
B32
330
1F
100
AcDbEntity
  8
0
100
AcDbCircle
 10
220.8074465310952
 20
89.5823522977
 30
0.0
 40
3.500000000000014
100
AcDbArc
 50
78.14527792000035
 51
270.0
  0
ARC
  5
B33
330
1F
100
AcDbEntity
  8
0
100
AcDbCircle
 10
220.8074465310952
 20
89.5823522977
 30
0.0
 40
3.500000000000014
100
AcDbArc
 50
270.0
 51
47.25557765729997
  0
LINE
  5
B34
330
1F
100
AcDbEntity
  8
0
100
AcDbLine
 10
210.3074465310952
 20
64.0823522977
 30
0.0
 11
210.5074465310952
 21
64.0823522977
 31
0.0
  0
LINE
  5
B35
330
1F
100
AcDbEntity
  8
0
100
AcDbLine
 10
210.3074465310952
 20
64.0823522977
 30
0.0
 11
210.3074465310952
 21
56.0823522977
 31
0.0
  0
LINE
  5
B36
330
1F
100
AcDbEntity
  8
0
100
AcDbLine
 10
210.6074465310951
 20
56.0823522977
 30
0.0
 11
210.3074465310952
 21
56.0823522977
 31
0.0
  0
LINE
  5
B37
330
1F
100
AcDbEntity
  8
0
100
AcDbLine
 10
210.5074465310952
 20
64.0823522977
 30
0.0
 11
210.5074465310952
 21
80.0823522977
 31
0.0
  0
LINE
  5
B38
330
1F
100
AcDbEntity
  8
0
  6
Continuous
 62
     8
370
     0
100
AcDbLine
 10
272.6074465310951
 20
64.0823522977
 30
0.0
 11
235.0074465310952
 21
64.0823522977
 31
0.0
  0
LINE
  5
B39
330
1F
100
AcDbEntity
  8
0
  6
Continuous
 62
     8
370
     0
100
AcDbLine
 10
270.3074465310952
 20
69.5823522977
 30
0.0
 11
270.3074465310952
 21
69.2823522977
 31
0.0
  0
LINE
  5
B3A
330
1F
100
AcDbEntity
  8
0
  6
Continuous
 62
     8
370
     0
100
AcDbLine
 10
237.3074465310952
 20
69.5823522977
 30
0.0
 11
237.3074465310952
 21
69.2823522977
 31
0.0
  0
LINE
  5
B3B
330
1F
100
AcDbEntity
  8
0
  6
Continuous
 62
     8
370
     0
100
AcDbLine
 10
271.8074465310952
 20
78.0823522977
 30
0.0
 11
271.8074465310952
 21
77.5823522977
 31
0.0
  0
LINE
  5
B3C
330
1F
100
AcDbEntity
  8
0
  6
Continuous
 62
     8
370
     0
100
AcDbLine
 10
235.8074465310952
 20
78.0823522977
 30
0.0
 11
235.8074465310952
 21
77.5823522977
 31
0.0
  0
LINE
  5
B3D
330
1F
100
AcDbEntity
  8
0
  6
Continuous
 62
     8
370
     0
100
AcDbLine
 10
214.3074465310952
 20
56.0823522977
 30
0.0
 11
214.3074465310952
 21
80.3823522977
 31
0.0
  0
LINE
  5
B3E
330
1F
100
AcDbEntity
  8
0
  6
Continuous
 62
     8
370
     0
100
AcDbLine
 10
235.0074465310952
 20
65.0823522977
 30
0.0
 11
234.8074465310952
 21
65.0823522977
 31
0.0
  0
LINE
  5
B3F
330
1F
100
AcDbEntity
  8
0
  6
Continuous
 62
     8
370
     0
100
AcDbLine
 10
272.8074465310952
 20
65.0823522977
 30
0.0
 11
272.6074465310951
 21
65.0823522977
 31
0.0
  0
LINE
  5
B40
330
1F
100
AcDbEntity
  8
0
100
AcDbLine
 10
112.5324601928952
 20
278.5412917826
 30
0.0
 11
119.5324601928952
 21
278.5412917826
 31
0.0
  0
LINE
  5
B41
330
1F
100
AcDbEntity
  8
0
100
AcDbLine
 10
119.5324601928952
 20
259.5412917826
 30
0.0
 11
112.5324601928952
 21
259.5412917826
 31
0.0
  0
LINE
  5
B42
330
1F
100
AcDbEntity
  8
0
100
AcDbLine
 10
112.5324601928952
 20
323.5412917826
 30
0.0
 11
119.5324601928952
 21
323.5412917826
 31
0.0
  0
LINE
  5
B43
330
1F
100
AcDbEntity
  8
0
100
AcDbLine
 10
119.5324601928952
 20
304.5412917826
 30
0.0
 11
112.5324601928952
 21
304.5412917826
 31
0.0
  0
LINE
  5
B44
330
1F
100
AcDbEntity
  8
0
100
AcDbLine
 10
111.5324601928952
 20
272.0412917826
 30
0.0
 11
112.0324601928952
 21
272.0412917826
 31
0.0
  0
LINE
  5
B45
330
1F
100
AcDbEntity
  8
0
100
AcDbLine
 10
112.0324601928952
 20
266.0412917826
 30
0.0
 11
111.5324601928952
 21
266.0412917826
 31
0.0
  0
LINE
  5
B46
330
1F
100
AcDbEntity
  8
0
100
AcDbLine
 10
111.5324601928952
 20
317.0412917826
 30
0.0
 11
112.0324601928952
 21
317.0412917826
 31
0.0
  0
LINE
  5
B47
330
1F
100
AcDbEntity
  8
0
100
AcDbLine
 10
112.0324601928952
 20
311.0412917826
 30
0.0
 11
111.5324601928952
 21
311.0412917826
 31
0.0
  0
LINE
  5
B48
330
1F
100
AcDbEntity
  8
0
100
AcDbLine
 10
161.0324601928952
 20
336.0412917826
 30
0.0
 11
161.0324601928952
 21
334.0412917826
 31
0.0
  0
LINE
  5
B49
330
1F
100
AcDbEntity
  8
0
100
AcDbLine
 10
133.0324601928952
 20
334.0412917826
 30
0.0
 11
133.0324601928952
 21
336.0412917826
 31
0.0
  0
ARC
  5
B4A
330
1F
100
AcDbEntity
  8
0
100
AcDbCircle
 10
147.0324601928952
 20
304.874625116
 30
0.0
 40
34.16666666666669
100
AcDbArc
 50
65.810485846
 51
114.189514154
  0
LINE
  5
B4B
330
1F
100
AcDbEntity
  8
0
100
AcDbLine
 10
133.0324601928952
 20
158.2412917826
 30
0.0
 11
133.0324601928952
 21
160.2412917826
 31
0.0
  0
LINE
  5
B4C
330
1F
100
AcDbEntity
  8
0
100
AcDbLine
 10
161.0324601928952
 20
160.2412917826
 30
0.0
 11
161.0324601928952
 21
158.2412917826
 31
0.0
  0
ARC
  5
B4D
330
1F
100
AcDbEntity
  8
0
100
AcDbCircle
 10
147.0324601928952
 20
189.4079584493
 30
0.0
 40
34.1666666666668
100
AcDbArc
 50
245.8104858460001
 51
264.9497592902999
  0
ARC
  5
B4E
330
1F
100
AcDbEntity
  8
0
100
AcDbCircle
 10
147.0324601928952
 20
189.4079584493
 30
0.0
 40
34.1666666666668
100
AcDbArc
 50
275.0502407097
 51
294.189514154
  0
LINE
  5
B4F
330
1F
100
AcDbEntity
  8
0
100
AcDbLine
 10
161.0324601928952
 20
249.0412917826
 30
0.0
 11
161.0324601928952
 21
245.2412917826
 31
0.0
  0
LINE
  5
B50
330
1F
100
AcDbEntity
  8
0
100
AcDbLine
 10
133.0324601928952
 20
245.2412917826
 30
0.0
 11
133.0324601928952
 21
249.0412917826
 31
0.0
  0
LINE
  5
B51
330
1F
100
AcDbEntity
  8
0
100
AcDbLine
 10
112.0324601928952
 20
276.9412917826
 30
0.0
 11
112.5324601928952
 21
276.9412917826
 31
0.0
  0
LINE
  5
B52
330
1F
100
AcDbEntity
  8
0
100
AcDbLine
 10
112.5324601928952
 20
261.1412917826
 30
0.0
 11
112.0324601928952
 21
261.1412917826
 31
0.0
  0
LINE
  5
B53
330
1F
100
AcDbEntity
  8
0
100
AcDbLine
 10
112.0324601928952
 20
321.9412917826
 30
0.0
 11
112.5324601928952
 21
321.9412917826
 31
0.0
  0
LINE
  5
B54
330
1F
100
AcDbEntity
  8
0
100
AcDbLine
 10
112.5324601928952
 20
306.1412917826
 30
0.0
 11
112.0324601928952
 21
306.1412917826
 31
0.0
  0
LINE
  5
B55
330
1F
100
AcDbEntity
  8
0
100
AcDbLine
 10
161.1324601928952
 20
334.0412917826
 30
0.0
 11
161.1324601928952
 21
249.0412917826
 31
0.0
  0
LINE
  5
B56
330
1F
100
AcDbEntity
  8
0
100
AcDbLine
 10
161.1324601928952
 20
245.2412917826
 30
0.0
 11
161.1324601928952
 21
160.2412917826
 31
0.0
  0
LINE
  5
B57
330
1F
100
AcDbEntity
  8
0
100
AcDbLine
 10
112.5324601928952
 20
265.402326206
 30
0.0
 11
112.5324601928952
 21
259.5412917826
 31
0.0
  0
LINE
  5
B58
330
1F
100
AcDbEntity
  8
0
100
AcDbLine
 10
112.5324601928952
 20
278.5412917826
 30
0.0
 11
112.5324601928952
 21
265.402326206
 31
0.0
  0
LINE
  5
B59
330
1F
100
AcDbEntity
  8
0
100
AcDbLine
 10
112.5324601928952
 20
310.402326206
 30
0.0
 11
112.5324601928952
 21
304.5412917826
 31
0.0
  0
LINE
  5
B5A
330
1F
100
AcDbEntity
  8
0
100
AcDbLine
 10
112.5324601928952
 20
323.5412917826
 30
0.0
 11
112.5324601928952
 21
310.402326206
 31
0.0
  0
LINE
  5
B5B
330
1F
100
AcDbEntity
  8
0
100
AcDbLine
 10
106.0324601928952
 20
333.0912917826
 30
0.0
 11
104.1994299148952
 21
333.0912917826
 31
0.0
  0
ARC
  5
B5C
330
1F
100
AcDbEntity
  8
0
100
AcDbCircle
 10
106.0324601928952
 20
332.2912917826
 30
0.0
 40
2.0
100
AcDbArc
 50
156.4218215217998
 51
180.0
  0
LINE
  5
B5D
330
1F
100
AcDbEntity
  8
0
100
AcDbLine
 10
104.0324601928952
 20
332.2912917826
 30
0.0
 11
104.0324601928952
 21
250.7912917826
 31
0.0
  0
ARC
  5
B5E
330
1F
100
AcDbEntity
  8
0
100
AcDbCircle
 10
106.0324601928952
 20
250.7912917826
 30
0.0
 40
1.99999999999999
100
AcDbArc
 50
180.0
 51
203.5781784781998
  0
LINE
  5
B5F
330
1F
100
AcDbEntity
  8
0
100
AcDbLine
 10
104.1994299148952
 20
249.9912917826
 30
0.0
 11
106.0324601928952
 21
249.9912917826
 31
0.0
  0
LINE
  5
B60
330
1F
100
AcDbEntity
  8
0
100
AcDbLine
 10
106.0324601928952
 20
249.9912917826
 30
0.0
 11
111.2324601928952
 21
249.9912917826
 31
0.0
  0
LINE
  5
B61
330
1F
100
AcDbEntity
  8
0
100
AcDbLine
 10
111.2324601928952
 20
249.9912917826
 30
0.0
 11
111.2324601928952
 21
333.0912917826
 31
0.0
  0
LINE
  5
B62
330
1F
100
AcDbEntity
  8
0
100
AcDbLine
 10
106.0324601928952
 20
333.0912917826
 30
0.0
 11
111.2324601928952
 21
333.0912917826
 31
0.0
  0
ARC
  5
B63
330
1F
100
AcDbEntity
  8
0
100
AcDbCircle
 10
105.5324601928952
 20
332.7912917826
 30
0.0
 40
0.5000000000000568
100
AcDbArc
 50
90.0
 51
143.1301023542009
  0
LINE
  5
B64
330
1F
100
AcDbEntity
  8
0
100
AcDbLine
 10
111.2324601928952
 20
333.2912917826
 30
0.0
 11
105.5324601928952
 21
333.2912917826
 31
0.0
  0
LINE
  5
B65
330
1F
100
AcDbEntity
  8
0
100
AcDbLine
 10
111.2324601928952
 20
334.2912917826
 30
0.0
 11
111.2324601928952
 21
333.2912917826
 31
0.0
  0
LINE
  5
B66
330
1F
100
AcDbEntity
  8
0
100
AcDbLine
 10
106.0324601928952
 20
334.2912917826
 30
0.0
 11
111.2324601928952
 21
334.2912917826
 31
0.0
  0
ARC
  5
B67
330
1F
100
AcDbEntity
  8
0
100
AcDbCircle
 10
106.0324601928952
 20
332.2912917826
 30
0.0
 40
2.0
100
AcDbArc
 50
90.0
 51
156.4218215217998
  0
LINE
  5
B68
330
1F
100
AcDbEntity
  8
0
100
AcDbLine
 10
106.0324601928952
 20
248.7912917826
 30
0.0
 11
111.2324601928952
 21
248.7912917826
 31
0.0
  0
LINE
  5
B69
330
1F
100
AcDbEntity
  8
0
100
AcDbLine
 10
111.2324601928952
 20
249.7912917826
 30
0.0
 11
111.2324601928952
 21
248.7912917826
 31
0.0
  0
LINE
  5
B6A
330
1F
100
AcDbEntity
  8
0
100
AcDbLine
 10
105.5324601928952
 20
249.7912917826
 30
0.0
 11
111.2324601928952
 21
249.7912917826
 31
0.0
  0
ARC
  5
B6B
330
1F
100
AcDbEntity
  8
0
100
AcDbCircle
 10
105.5324601928952
 20
250.2912917826
 30
0.0
 40
0.5
100
AcDbArc
 50
216.8698976458004
 51
270.0
  0
ARC
  5
B6C
330
1F
100
AcDbEntity
  8
0
100
AcDbCircle
 10
106.0324601928952
 20
250.7912917826
 30
0.0
 40
2.0
100
AcDbArc
 50
203.5781784782002
 51
270.0
  0
LINE
  5
B6D
330
1F
100
AcDbEntity
  8
0
100
AcDbLine
 10
111.5324601928952
 20
253.5412917826
 30
0.0
 11
111.5324601928952
 21
329.5412917826
 31
0.0
  0
LINE
  5
B6E
330
1F
100
AcDbEntity
  8
0
100
AcDbLine
 10
111.5324601928952
 20
329.5412917826
 30
0.0
 11
111.5324601928952
 21
331.5412917826
 31
0.0
  0
LINE
  5
B6F
330
1F
100
AcDbEntity
  8
0
100
AcDbLine
 10
111.5324601928952
 20
331.5412917826
 30
0.0
 11
111.2324601928952
 21
331.5412917826
 31
0.0
  0
LINE
  5
B70
330
1F
100
AcDbEntity
  8
0
100
AcDbLine
 10
111.5324601928952
 20
251.5412917826
 30
0.0
 11
111.2324601928952
 21
251.5412917826
 31
0.0
  0
LINE
  5
B71
330
1F
100
AcDbEntity
  8
0
100
AcDbLine
 10
111.5324601928952
 20
251.5412917826
 30
0.0
 11
111.5324601928952
 21
253.5412917826
 31
0.0
  0
LINE
  5
B72
330
1F
100
AcDbEntity
  8
0
100
AcDbLine
 10
120.0324601928952
 20
333.0412917826
 30
0.0
 11
119.5324601928952
 21
333.0412917826
 31
0.0
  0
LINE
  5
B73
330
1F
100
AcDbEntity
  8
0
100
AcDbLine
 10
119.5324601928952
 20
331.0412917826
 30
0.0
 11
119.5324601928952
 21
333.0412917826
 31
0.0
  0
LINE
  5
B74
330
1F
100
AcDbEntity
  8
0
100
AcDbLine
 10
119.5324601928952
 20
252.0412917826
 30
0.0
 11
119.5324601928952
 21
331.0412917826
 31
0.0
  0
LINE
  5
B75
330
1F
100
AcDbEntity
  8
0
100
AcDbLine
 10
120.0324601928952
 20
250.0412917826
 30
0.0
 11
119.5324601928952
 21
250.0412917826
 31
0.0
  0
LINE
  5
B76
330
1F
100
AcDbEntity
  8
0
100
AcDbLine
 10
119.5324601928952
 20
250.0412917826
 30
0.0
 11
119.5324601928952
 21
252.0412917826
 31
0.0
  0
LINE
  5
B77
330
1F
100
AcDbEntity
  8
0
100
AcDbLine
 10
161.0324601928952
 20
336.0412917826
 30
0.0
 11
133.0324601928952
 21
336.0412917826
 31
0.0
  0
LINE
  5
B78
330
1F
100
AcDbEntity
  8
0
100
AcDbLine
 10
148.0313682564952
 20
158.2412917826
 30
0.0
 11
161.0324601928952
 21
158.2412917826
 31
0.0
  0
LINE
  5
B79
330
1F
100
AcDbEntity
  8
0
100
AcDbLine
 10
133.0324601928952
 20
158.2412917826
 30
0.0
 11
148.0313682564952
 21
158.2412917826
 31
0.0
  0
ARC
  5
B7A
330
1F
100
AcDbEntity
  8
0
100
AcDbCircle
 10
150.0256523094952
 20
155.5691873401
 30
0.0
 40
0.1952415048191275
100
AcDbArc
 50
237.5306425460998
 51
308.9528687758026
  0
ARC
  5
B7B
330
1F
100
AcDbEntity
  8
0
100
AcDbCircle
 10
148.3433026948952
 20
182.9153443741
 30
0.0
 40
27.54209003509645
100
AcDbArc
 50
267.2720252245
 51
270.4014808280999
  0
ARC
  5
B7C
330
1F
100
AcDbEntity
  8
0
100
AcDbCircle
 10
145.3509801263952
 20
178.7231902142
 30
0.0
 40
23.34993549867444
100
AcDbArc
 50
267.0372111541
 51
270.435912797
  0
ARC
  5
B7D
330
1F
100
AcDbEntity
  8
0
100
AcDbCircle
 10
144.0365955263952
 20
155.5800255424
 30
0.0
 40
0.2064326278294095
100
AcDbArc
 50
266.7228306040025
 51
308.0003430149005
  0
ARC
  5
B7E
330
1F
100
AcDbEntity
  8
0
100
AcDbCircle
 10
145.7216574773952
 20
182.9152524302
 30
0.0
 40
27.54199736766369
100
AcDbArc
 50
266.7572182727001
 51
273.2427817273
  0
ARC
  5
B7F
330
1F
100
AcDbEntity
  8
0
100
AcDbCircle
 10
148.7140113765952
 20
178.7230389042
 30
0.0
 40
23.34978278413557
100
AcDbArc
 50
266.4780822205
 51
273.5219177795
  0
LINE
  5
B80
330
1F
100
AcDbEntity
  8
0
100
AcDbLine
 10
98.03246019289517
 20
161.4412917826
 30
0.0
 11
98.83246019289518
 21
162.2412917826
 31
0.0
  0
LINE
  5
B81
330
1F
100
AcDbEntity
  8
0
100
AcDbLine
 10
98.03246019289517
 20
160.2412917826
 30
0.0
 11
98.03246019289517
 21
161.4412917826
 31
0.0
  0
LINE
  5
B82
330
1F
100
AcDbEntity
  8
0
100
AcDbLine
 10
98.03246019289517
 20
160.2412917826
 30
0.0
 11
122.0324601928952
 21
160.2412917826
 31
0.0
  0
LINE
  5
B83
330
1F
100
AcDbEntity
  8
0
100
AcDbLine
 10
98.83246019289518
 20
243.2412917826
 30
0.0
 11
98.03246019289517
 21
244.0412917826
 31
0.0
  0
LINE
  5
B84
330
1F
100
AcDbEntity
  8
0
100
AcDbLine
 10
98.03246019289517
 20
245.2412917826
 30
0.0
 11
122.0324601928952
 21
245.2412917826
 31
0.0
  0
LINE
  5
B85
330
1F
100
AcDbEntity
  8
0
100
AcDbLine
 10
98.03246019289517
 20
245.2412917826
 30
0.0
 11
98.03246019289517
 21
244.0412917826
 31
0.0
  0
LINE
  5
B86
330
1F
100
AcDbEntity
  8
0
100
AcDbLine
 10
98.03246019289517
 20
244.0412917826
 30
0.0
 11
96.83246019289518
 21
244.0412917826
 31
0.0
  0
LINE
  5
B87
330
1F
100
AcDbEntity
  8
0
100
AcDbLine
 10
96.83246019289518
 20
244.0412917826
 30
0.0
 11
96.83246019289518
 21
161.4412917826
 31
0.0
  0
LINE
  5
B88
330
1F
100
AcDbEntity
  8
0
100
AcDbLine
 10
96.83246019289518
 20
161.4412917826
 30
0.0
 11
98.03246019289517
 21
161.4412917826
 31
0.0
  0
LINE
  5
B89
330
1F
100
AcDbEntity
  8
0
100
AcDbLine
 10
124.7104803924952
 20
334.0412917826
 30
0.0
 11
122.7698889398952
 21
334.0412917826
 31
0.0
  0
LINE
  5
B8A
330
1F
100
AcDbEntity
  8
0
100
AcDbLine
 10
124.7104803924952
 20
249.0412917826
 30
0.0
 11
122.7698889398952
 21
249.0412917826
 31
0.0
  0
LINE
  5
B8B
330
1F
100
AcDbEntity
  8
0
100
AcDbLine
 10
120.0324601928952
 20
334.0412917826
 30
0.0
 11
120.0324601928952
 21
249.0412917826
 31
0.0
  0
LINE
  5
B8C
330
1F
100
AcDbEntity
  8
0
100
AcDbLine
 10
122.7698889398952
 20
334.0412917826
 30
0.0
 11
120.0324601928952
 21
334.0412917826
 31
0.0
  0
LINE
  5
B8D
330
1F
100
AcDbEntity
  8
0
100
AcDbLine
 10
122.7698889398952
 20
249.0412917826
 30
0.0
 11
120.0324601928952
 21
249.0412917826
 31
0.0
  0
LINE
  5
B8E
330
1F
100
AcDbEntity
  8
0
100
AcDbLine
 10
131.5901242638952
 20
334.0412917826
 30
0.0
 11
124.7104803924952
 21
334.0412917826
 31
0.0
  0
LINE
  5
B8F
330
1F
100
AcDbEntity
  8
0
100
AcDbLine
 10
131.5901242638952
 20
249.0412917826
 30
0.0
 11
124.7104803924952
 21
249.0412917826
 31
0.0
  0
LINE
  5
B90
330
1F
100
AcDbEntity
  8
0
100
AcDbLine
 10
112.0324601928952
 20
276.9412917826
 30
0.0
 11
112.0324601928952
 21
261.1412917826
 31
0.0
  0
LINE
  5
B91
330
1F
100
AcDbEntity
  8
0
100
AcDbLine
 10
112.0324601928952
 20
321.9412917826
 30
0.0
 11
112.0324601928952
 21
306.1412917826
 31
0.0
  0
SPLINE
  5
B92
330
1F
100
AcDbEntity
  8
0
100
AcDbSpline
210
0.0
220
0.0
230
1.0
 70
     8
 71
     3
 72
     9
 73
     5
 74
     0
 42
0.000000001
 43
0.00000001
 40
0.0
 40
0.0
 40
0.0
 40
0.0
 40
0.6813361370175066
 40
1.0
 40
1.0
 40
1.0
 40
1.0
 10
140.7795799363126
 20
321.7989539229926
 30
0.0
 10
140.730037894531
 20
322.1386237518691
 30
0.0
 10
140.6573248251809
 20
322.6371586312362
 30
0.0
 10
140.7500361783647
 20
323.1274056374687
 30
0.0
 10
140.7795799363127
 20
323.2836296422904
 30
0.0
  0
LINE
  5
B93
330
1F
100
AcDbEntity
  8
0
100
AcDbLine
 10
140.7795799362952
 20
334.0412917826
 30
0.0
 11
131.5901242638952
 21
334.0412917826
 31
0.0
  0
LINE
  5
B94
330
1F
100
AcDbEntity
  8
0
100
AcDbLine
 10
140.7795799362952
 20
249.0412917826
 30
0.0
 11
131.5901242638952
 21
249.0412917826
 31
0.0
  0
SPLINE
  5
B95
330
1F
100
AcDbEntity
  8
0
100
AcDbSpline
210
0.0
220
0.0
230
1.0
 70
     8
 71
     3
 72
    25
 73
    21
 74
     0
 42
0.000000001
 43
0.00000001
 40
0.0
 40
0.0
 40
0.0
 40
0.0
 40
0.0580378296639893
 40
0.1160425221834454
 40
0.1746799781403294
 40
0.2327081683428533
 40
0.2895667506840742
 40
0.3464716969166176
 40
0.4045443801976268
 40
0.4631769838892133
 40
0.5208210863481283
 40
0.5774645311410037
 40
0.6346520711223135
 40
0.6930697833394478
 40
0.7515150805320411
 40
0.8087638904227814
 40
0.8654586964636125
 40
0.9230326431149967
 40
0.98163008123825
 40
1.0
 40
1.0
 40
1.0
 40
1.0
 10
140.7795799363127
 20
321.7989539229926
 30
0.0
 10
140.8866477412749
 20
321.46921984573
 30
0.0
 10
141.1007222200138
 20
320.8099399554083
 30
0.0
 10
141.7858216646633
 20
320.0384683064885
 30
0.0
 10
142.665938723056
 20
319.5399055269241
 30
0.0
 10
143.6746869337131
 20
319.3835007092903
 30
0.0
 10
144.6831556496192
 20
319.5773981513581
 30
0.0
 10
145.5873534071012
 20
320.0920942190609
 30
0.0
 10
146.2911701452666
 20
320.8808896434816
 30
0.0
 10
146.6985486004965
 20
321.8639812639835
 30
0.0
 10
146.7487541855137
 20
322.9184052905921
 30
0.0
 10
146.4464078369801
 20
323.9192112425018
 30
0.0
 10
145.8335229277537
 20
324.7705654045891
 30
0.0
 10
144.9728670914293
 20
325.3844747950732
 30
0.0
 10
143.9683135022475
 20
325.6799408344409
 30
0.0
 10
142.9525638853152
 20
325.6220859703096
 30
0.0
 10
142.0355415465369
 20
325.2292014790644
 30
0.0
 10
141.3014838167401
 20
324.5415056627314
 30
0.0
 10
140.9214454515983
 20
323.8321412862365
 30
0.0
 10
140.806915078556
 20
323.3893187787883
 30
0.0
 10
140.7795799363127
 20
323.2836296422904
 30
0.0
  0
LINE
  5
B96
330
1F
100
AcDbEntity
  8
0
100
AcDbLine
 10
161.1324601928952
 20
334.0412917826
 30
0.0
 11
140.7795799362952
 21
334.0412917826
 31
0.0
  0
LINE
  5
B97
330
1F
100
AcDbEntity
  8
0
100
AcDbLine
 10
161.1324601928952
 20
249.0412917826
 30
0.0
 11
140.7795799362952
 21
249.0412917826
 31
0.0
  0
ARC
  5
B98
330
1F
100
AcDbEntity
  8
0
100
AcDbCircle
 10
144.2683340963952
 20
322.5932694879
 30
0.0
 40
3.050527498069459
100
AcDbArc
 50
94.10950289930021
 51
180.9763056593996
  0
ARC
  5
B99
330
1F
100
AcDbEntity
  8
0
100
AcDbCircle
 10
144.2880637437952
 20
322.5044712343
 30
0.0
 40
3.070035103318831
100
AcDbArc
 50
179.3128050571998
 51
262.0872248819001
  0
LWPOLYLINE
  5
B9A
330
1F
100
AcDbEntity
  8
0
100
AcDbPolyline
 90
       25
 70
   128
 43
0.0
 10
141.8004268882952
 20
322.5412917826
 10
141.8830819510952
 20
323.1883393954
 10
142.1254143335952
 20
323.7912917826
 10
142.5109094844952
 20
324.3090587356
 10
143.0132965460952
 20
324.7063552921
 10
143.5983386705952
 20
324.9561063484
 10
144.2261662039952
 20
325.0412917826
 10
144.8539937372952
 20
324.9561063484
 10
145.4390358617952
 20
324.7063552921
 10
145.9414229234952
 20
324.3090587356
 10
146.3269180742952
 20
323.7912917826
 10
146.5692504567952
 20
323.1883393954
 10
146.6519055196952
 20
322.5412917826
 10
146.5692504567952
 20
321.8942441699
 10
146.3269180742952
 20
321.2912917826
 10
145.9414229234952
 20
320.7735248297
 10
145.4390358617952
 20
320.3762282732
 10
144.8539937372952
 20
320.1264772169
 10
144.2261662039952
 20
320.0412917826
 10
143.5983386705952
 20
320.1264772169
 10
143.0132965460952
 20
320.3762282732
 10
142.5109094844952
 20
320.7735248297
 10
142.1254143335952
 20
321.2912917826
 10
141.8830819510952
 20
321.8942441699
 10
141.8004268882952
 20
322.5412917826
  0
SPLINE
  5
B9B
330
1F
100
AcDbEntity
  8
0
100
AcDbSpline
210
0.0
220
0.0
230
1.0
 70
     8
 71
     3
 72
    15
 73
    11
 74
     0
 42
0.000000001
 43
0.00000001
 40
0.0
 40
0.0
 40
0.0
 40
0.0
 40
0.122657845027124
 40
0.24904523089705
 40
0.3716582386655315
 40
0.4975525665463905
 40
0.625493800988414
 40
0.7569072868884312
 40
0.8887225495225414
 40
1.0
 40
1.0
 40
1.0
 40
1.0
 10
143.0768637333158
 20
322.5412917826416
 30
0.0
 10
143.0822623308826
 20
322.6744714297447
 30
0.0
 10
143.0932236760559
 20
322.9448801912572
 30
0.0
 10
143.1813000530386
 20
323.3364710540927
 30
0.0
 10
143.3204170680726
 20
323.7083149614623
 30
0.0
 10
143.512583495706
 20
324.049670559468
 30
0.0
 10
143.7585116998392
 20
324.3584076698954
 30
0.0
 10
144.0564572994032
 20
324.6201111518431
 30
0.0
 10
144.3794815899865
 20
324.8227876448414
 30
0.0
 10
144.6160558072642
 20
324.9014433303101
 30
0.0
 10
144.7243493690513
 20
324.9374485401434
 30
0.0
  0
SPLINE
  5
B9C
330
1F
100
AcDbEntity
  8
0
100
AcDbSpline
210
0.0
220
0.0
230
1.0
 70
     8
 71
     3
 72
    15
 73
    11
 74
     0
 42
0.000000001
 43
0.00000001
 40
0.0
 40
0.0
 40
0.0
 40
0.0
 40
0.0916007318834523
 40
0.2138127867338027
 40
0.3378056571601027
 40
0.4650602797607032
 40
0.5950824177736552
 40
0.7289788664603105
 40
0.8620834224904174
 40
1.0
 40
1.0
 40
1.0
 40
1.0
 10
144.7563774018672
 20
320.1352205209492
 30
0.0
 10
144.6654226807105
 20
320.1629610848942
 30
0.0
 10
144.4531178006375
 20
320.2277126121002
 30
0.0
 10
144.1500315669678
 20
320.3985968592434
 30
0.0
 10
143.8491851403767
 20
320.6344653991382
 30
0.0
 10
143.5869370644807
 20
320.9276035371373
 30
0.0
 10
143.3682317931805
 20
321.2735728059776
 30
0.0
 10
143.2051109678068
 20
321.6642206410193
 30
0.0
 10
143.0974907605862
 20
322.0922660188653
 30
0.0
 10
143.083820316014
 20
322.3898552805036
 30
0.0
 10
143.0768637333158
 20
322.5412917826415
 30
0.0
  0
LINE
  5
B9D
330
1F
100
AcDbEntity
  8
0
100
AcDbLine
 10
134.4159539477952
 20
245.2412917826
 30
0.0
 11
161.1324601928952
 21
245.2412917826
 31
0.0
  0
LINE
  5
B9E
330
1F
100
AcDbEntity
  8
0
100
AcDbLine
 10
161.1324601928952
 20
160.2412917826
 30
0.0
 11
134.4159539477952
 21
160.2412917826
 31
0.0
  0
LINE
  5
B9F
330
1F
100
AcDbEntity
  8
0
100
AcDbLine
 10
123.3495274852952
 20
245.2412917826
 30
0.0
 11
134.4159539477952
 21
245.2412917826
 31
0.0
  0
LINE
  5
BA0
330
1F
100
AcDbEntity
  8
0
100
AcDbLine
 10
123.3495274852952
 20
160.2412917826
 30
0.0
 11
134.4159539477952
 21
160.2412917826
 31
0.0
  0
LINE
  5
BA1
330
1F
100
AcDbEntity
  8
0
100
AcDbLine
 10
122.0324601928952
 20
245.2412917826
 30
0.0
 11
122.0324601928952
 21
160.2412917826
 31
0.0
  0
LINE
  5
BA2
330
1F
100
AcDbEntity
  8
0
100
AcDbLine
 10
123.3495274852952
 20
245.2412917826
 30
0.0
 11
122.0324601928952
 21
245.2412917826
 31
0.0
  0
LINE
  5
BA3
330
1F
100
AcDbEntity
  8
0
100
AcDbLine
 10
123.3495274852952
 20
160.2412917826
 30
0.0
 11
122.0324601928952
 21
160.2412917826
 31
0.0
  0
LINE
  5
BA4
330
1F
100
AcDbEntity
  8
0
  6
Continuous
 62
     8
370
     0
100
AcDbLine
 10
106.0324601928952
 20
249.9912917826
 30
0.0
 11
106.0324601928952
 21
333.0912917826
 31
0.0
  0
LINE
  5
BA5
330
1F
100
AcDbEntity
  8
0
  6
Continuous
 62
     8
370
     0
100
AcDbLine
 10
111.5324601928952
 20
253.5412917826
 30
0.0
 11
111.2324601928952
 21
253.5412917826
 31
0.0
  0
LINE
  5
BA6
330
1F
100
AcDbEntity
  8
0
  6
Continuous
 62
     8
370
     0
100
AcDbLine
 10
111.5324601928952
 20
329.5412917826
 30
0.0
 11
111.2324601928952
 21
329.5412917826
 31
0.0
  0
LINE
  5
BA7
330
1F
100
AcDbEntity
  8
0
  6
Continuous
 62
     8
370
     0
100
AcDbLine
 10
120.0324601928952
 20
331.0412917826
 30
0.0
 11
119.5324601928952
 21
331.0412917826
 31
0.0
  0
LINE
  5
BA8
330
1F
100
AcDbEntity
  8
0
  6
Continuous
 62
     8
370
     0
100
AcDbLine
 10
120.0324601928952
 20
252.0412917826
 30
0.0
 11
119.5324601928952
 21
252.0412917826
 31
0.0
  0
LINE
  5
BA9
330
1F
100
AcDbEntity
  8
0
  6
Continuous
 62
     8
370
     0
100
AcDbLine
 10
98.83246019289518
 20
162.2412917826
 30
0.0
 11
122.0324601928952
 21
162.2412917826
 31
0.0
  0
LINE
  5
BAA
330
1F
100
AcDbEntity
  8
0
  6
Continuous
 62
     8
370
     0
100
AcDbLine
 10
98.83246019289518
 20
243.2412917826
 30
0.0
 11
122.0324601928952
 21
243.2412917826
 31
0.0
  0
LINE
  5
BAB
330
1F
100
AcDbEntity
  8
0
  6
Continuous
 62
     8
370
     0
100
AcDbLine
 10
98.83246019289518
 20
162.2412917826
 30
0.0
 11
98.83246019289518
 21
243.2412917826
 31
0.0
  0
LINE
  5
BAC
330
1F
100
AcDbEntity
  8
0
  6
Continuous
 62
     8
370
     0
100
AcDbLine
 10
122.7698889398952
 20
334.0412917826
 30
0.0
 11
122.7698889398952
 21
249.0412917826
 31
0.0
  0
LINE
  5
BAD
330
1F
100
AcDbEntity
  8
0
  6
Continuous
 62
     8
370
     0
100
AcDbLine
 10
124.7104803924952
 20
334.0412917826
 30
0.0
 11
124.7104803924952
 21
249.0412917826
 31
0.0
  0
LINE
  5
BAE
330
1F
100
AcDbEntity
  8
0
  6
Continuous
 62
     8
370
     0
100
AcDbLine
 10
131.5901242638952
 20
334.0412917826
 30
0.0
 11
131.5901242638952
 21
249.0412917826
 31
0.0
  0
LINE
  5
BAF
330
1F
100
AcDbEntity
  8
0
  6
Continuous
 62
     8
370
     0
100
AcDbLine
 10
140.7795799362952
 20
334.0412917826
 30
0.0
 11
140.7795799362952
 21
323.2836296423
 31
0.0
  0
LINE
  5
BB0
330
1F
100
AcDbEntity
  8
0
  6
Continuous
 62
     8
370
     0
100
AcDbLine
 10
140.7795799362952
 20
321.798953923
 30
0.0
 11
140.7795799362952
 21
249.0412917826
 31
0.0
  0
LINE
  5
BB1
330
1F
100
AcDbEntity
  8
0
  6
Continuous
 62
     8
370
     0
100
AcDbLine
 10
123.3495274852952
 20
245.2412917826
 30
0.0
 11
123.3495274852952
 21
160.2412917826
 31
0.0
  0
CIRCLE
  5
BB2
330
1F
100
AcDbEntity
  8
ASSI
100
AcDbCircle
 10
114.0324601928952
 20
235.2412917826
 30
0.0
 40
3.15000000000001
  0
CIRCLE
  5
BB3
330
1F
100
AcDbEntity
  8
ASSI
100
AcDbCircle
 10
108.0324601928952
 20
202.7412917826
 30
0.0
 40
3.150000000000002
  0
CIRCLE
  5
BB4
330
1F
100
AcDbEntity
  8
ASSI
100
AcDbCircle
 10
114.0324601928952
 20
170.2412917826
 30
0.0
 40
3.149999999999975
  0
CIRCLE
  5
BB5
330
1F
100
AcDbEntity
  8
ASSI
100
AcDbCircle
 10
114.0324601928952
 20
235.2412917826
 30
0.0
 40
6.199999999999995
  0
CIRCLE
  5
BB6
330
1F
100
AcDbEntity
  8
ASSI
100
AcDbCircle
 10
108.0324601928952
 20
202.7412917826
 30
0.0
 40
6.200000000000013
  0
CIRCLE
  5
BB7
330
1F
100
AcDbEntity
  8
ASSI
100
AcDbCircle
 10
114.0324601928952
 20
170.2412917826
 30
0.0
 40
6.199999999999986
  0
LINE
  5
BB8
330
1F
100
AcDbEntity
  8
0
  6
Continuous
 62
     7
370
     0
100
AcDbLine
 10
144.2261662039952
 20
325.5412917826
 30
0.0
 11
143.4408182418952
 21
325.4300436447
 31
0.0
  0
ARC
  5
BB9
330
1F
100
AcDbEntity
  8
0
  6
Continuous
 62
     7
370
     0
100
AcDbCircle
 10
144.3011322293952
 20
322.5480511614
 30
0.0
 40
3.00769377878223
100
AcDbArc
 50
106.6232130539001
 51
268.5717689256998
  0
LINE
  5
BBA
330
1F
100
AcDbEntity
  8
0
  6
Continuous
 62
     7
370
     0
100
AcDbLine
 10
111.5324601928952
 20
316.5412917826
 30
0.0
 11
112.0324601928952
 21
316.5412917826
 31
0.0
  0
LINE
  5
BBB
330
1F
100
AcDbEntity
  8
0
  6
Continuous
 62
     7
370
     0
100
AcDbLine
 10
112.0324601928952
 20
311.5412917826
 30
0.0
 11
111.5324601928952
 21
311.5412917826
 31
0.0
  0
LINE
  5
BBC
330
1F
100
AcDbEntity
  8
0
  6
Continuous
 62
     7
370
     0
100
AcDbLine
 10
111.5324601928952
 20
271.5412917826
 30
0.0
 11
112.0324601928952
 21
271.5412917826
 31
0.0
  0
LINE
  5
BBD
330
1F
100
AcDbEntity
  8
0
  6
Continuous
 62
     7
370
     0
100
AcDbLine
 10
112.0324601928952
 20
266.5412917826
 30
0.0
 11
111.5324601928952
 21
266.5412917826
 31
0.0
  0
LINE
  5
BBE
330
1F
100
AcDbEntity
  8
0
100
AcDbLine
 10
161.8823933946952
 20
93.986076272
 30
0.0
 11
161.8823933946952
 21
22.0193652176
 31
0.0
  0
LINE
  5
BBF
330
1F
100
AcDbEntity
  8
0
100
AcDbLine
 10
161.1299139138952
 20
20.9906476949
 30
0.0
 11
128.5673587315952
 21
11.5906476949
 31
0.0
  0
LINE
  5
BC0
330
1F
100
AcDbEntity
  8
0
100
AcDbLine
 10
154.1917007360952
 20
99.7847599128
 30
0.0
 11
154.4417007360952
 21
99.5682535619
 31
0.0
  0
LINE
  5
BC1
330
1F
100
AcDbEntity
  8
0
100
AcDbLine
 10
120.6461715169952
 20
19.1285308788
 30
0.0
 11
120.3961715169952
 21
19.3450372298
 31
0.0
  0
LINE
  5
BC2
330
1F
100
AcDbEntity
  8
0
100
AcDbLine
 10
116.1433010318952
 20
103.5443719908
 30
0.0
 11
116.1433010318952
 21
101.8123211832
 31
0.0
  0
LINE
  5
BC3
330
1F
100
AcDbEntity
  8
0
100
AcDbLine
 10
88.14330103189516
 20
101.8123211832
 30
0.0
 11
88.14330103189516
 21
103.5443719908
 31
0.0
  0
LINE
  5
BC4
330
1F
100
AcDbEntity
  8
0
100
AcDbLine
 10
88.14330103189516
 20
-50.4349448021
 30
0.0
 11
88.14330103189516
 21
-49.5410467252
 31
0.0
  0
LINE
  5
BC5
330
1F
100
AcDbEntity
  8
0
100
AcDbLine
 10
116.1433010318952
 20
-49.5410467252
 30
0.0
 11
116.1433010318952
 21
-50.4349448021
 31
0.0
  0
LINE
  5
BC6
330
1F
100
AcDbEntity
  8
0
100
AcDbLine
 10
88.14330103189516
 20
24.9092653272
 30
0.0
 11
88.14330103189516
 21
27.3620091308
 31
0.0
  0
LINE
  5
BC7
330
1F
100
AcDbEntity
  8
0
100
AcDbLine
 10
115.6859326770952
 20
-0.6261773886
 30
0.0
 11
115.6859326770952
 21
-72.1598757412
 31
0.0
  0
LINE
  5
BC8
330
1F
100
AcDbEntity
  8
0
100
AcDbLine
 10
103.2452400184952
 20
10.3686586749
 30
0.0
 11
115.3952400184952
 21
-0.1535499811
 31
0.0
  0
LINE
  5
BC9
330
1F
100
AcDbEntity
  8
0
100
AcDbLine
 10
88.04330103189517
 20
28.2001618615
 30
0.0
 11
88.04330103189517
 21
101.8123211832
 31
0.0
  0
LINE
  5
BCA
330
1F
100
AcDbEntity
  8
0
100
AcDbLine
 10
114.2199072732952
 20
-0.7607073347
 30
0.0
 11
114.2199072732952
 21
-1.0493824693
 31
0.0
  0
LINE
  5
BCB
330
1F
100
AcDbEntity
  8
0
100
AcDbLine
 10
110.9214756385952
 20
13.5868996027
 30
0.0
 11
110.9214756385952
 21
3.7208436225
 31
0.0
  0
LINE
  5
BCC
330
1F
100
AcDbEntity
  8
0
100
AcDbLine
 10
116.2433010318952
 20
19.4240868598
 30
0.0
 11
116.2433010318952
 21
-48.7028939945
 31
0.0
  0
LINE
  5
BCD
330
1F
100
AcDbEntity
  8
0
100
AcDbLine
 10
88.04330103189517
 20
-48.7028939945
 30
0.0
 11
88.04330103189517
 21
24.9092653272
 31
0.0
  0
LINE
  5
BCE
330
1F
100
AcDbEntity
  8
0
100
AcDbLine
 10
88.38559212249518
 20
-55.0204193886
 30
0.0
 11
88.38559212249518
 21
18.5917399331
 31
0.0
  0
ARC
  5
BCF
330
1F
100
AcDbEntity
  8
0
100
AcDbCircle
 10
102.9650978016952
 20
9.1768106248
 30
0.0
 40
5.116663378982619
100
AcDbArc
 50
83.03342340609996
 51
96.96657659380001
  0
ARC
  5
BD0
330
1F
100
AcDbEntity
  8
0
100
AcDbCircle
 10
125.4949253557952
 20
83.420773045
 30
0.0
 40
3.481488580194944
100
AcDbArc
 50
9.449386081000098
 51
43.68257677759988
  0
ELLIPSE
  5
BD1
330
1F
100
AcDbEntity
  8
0
100
AcDbEllipse
 10
128.7054788583952
 20
84.293255949
 30
0.0
 11
-1.998963126341011
 21
1.503535837598733
 31
0.0
210
0.0
220
0.0
230
-1.0
 40
0.0428275111
 41
4.156588290811742
 42
4.568105136879232
  0
ELLIPSE
  5
BD2
330
1F
100
AcDbEntity
  8
0
100
AcDbEllipse
 10
159.8823933946952
 20
93.293255949
 30
0.0
 11
1.698956499743474
 21
2.258776486278151
 31
0.0
210
0.0
220
0.0
230
-1.0
 40
0.4671764920999999
 41
1.191481394702039
 42
1.602998240769531
  0
ARC
  5
BD3
330
1F
100
AcDbEntity
  8
0
100
AcDbCircle
 10
158.0574805380952
 20
92.820773045
 30
0.0
 40
3.48148858019461
100
AcDbArc
 50
9.449386081000021
 51
43.68257677760009
  0
ELLIPSE
  5
BD4
330
1F
100
AcDbEntity
  8
0
100
AcDbEllipse
 10
128.7054788583952
 20
13.7121855406
 30
0.0
 11
1.698956499743474
 21
2.258776486278158
 31
0.0
210
0.0
220
0.0
230
-1.0
 40
0.4671764921
 41
1.602998240769522
 42
2.014515086836995
  0
ARC
  5
BD5
330
1F
100
AcDbEntity
  8
0
100
AcDbCircle
 10
128.6177794946952
 20
86.8792695366
 30
0.0
 40
2.903664180321751
100
AcDbArc
 50
235.5072319235001
 51
276.1563418159001
  0
ARC
  5
BD6
330
1F
100
AcDbEntity
  8
0
100
AcDbCircle
 10
128.6177794946952
 20
14.9125584821
 30
0.0
 40
2.903664180321787
100
AcDbArc
 50
235.5072319235
 51
276.1563418159
  0
LINE
  5
BD7
330
1F
100
AcDbEntity
  8
0
100
AcDbLine
 10
128.0126585353952
 20
85.8253067566
 30
0.0
 11
125.4126585353952
 21
88.0769728064
 31
0.0
  0
LINE
  5
BD8
330
1F
100
AcDbEntity
  8
0
100
AcDbLine
 10
125.4126585353952
 20
87.2109474026
 30
0.0
 11
125.4126585353952
 21
88.0769728064
 31
0.0
  0
LINE
  5
BD9
330
1F
100
AcDbEntity
  8
0
100
AcDbLine
 10
128.2626585353952
 20
84.7427750019
 30
0.0
 11
125.4126585353952
 21
87.2109474026
 31
0.0
  0
ARC
  5
BDA
330
1F
100
AcDbEntity
  8
0
100
AcDbCircle
 10
127.7064728665952
 20
84.1907209485
 30
0.0
 40
0.7836492684937258
100
AcDbArc
 50
15.21360273580036
 51
44.78639726420045
  0
LINE
  5
BDB
330
1F
100
AcDbEntity
  8
0
100
AcDbLine
 10
128.9291736743952
 20
83.9923508787
 30
0.0
 11
128.4626585353952
 21
84.3963648403
 31
0.0
  0
ARC
  5
BDC
330
1F
100
AcDbEntity
  8
0
100
AcDbCircle
 10
128.4699211008952
 20
85.045211365
 30
0.0
 40
0.6488871684837247
100
AcDbArc
 50
234.1023819342002
 51
269.3587127904009
  0
LINE
  5
BDD
330
1F
100
AcDbEntity
  8
0
100
AcDbLine
 10
125.2394534545952
 20
86.9877423219
 30
0.0
 11
128.0894534545952
 21
84.5195699211
 31
0.0
  0
LINE
  5
BDE
330
1F
100
AcDbEntity
  8
0
100
AcDbLine
 10
124.3734280508952
 20
86.7377423219
 30
0.0
 11
125.2394534545952
 21
86.9877423219
 31
0.0
  0
LINE
  5
BDF
330
1F
100
AcDbEntity
  8
0
100
AcDbLine
 10
126.9734280508952
 20
84.486076272
 30
0.0
 11
124.3734280508952
 21
86.7377423219
 31
0.0
  0
LINE
  5
BE0
330
1F
100
AcDbEntity
  8
0
100
AcDbLine
 10
160.5752137176952
 20
95.2253067566
 30
0.0
 11
157.9752137176952
 21
97.4769728064
 31
0.0
  0
LINE
  5
BE1
330
1F
100
AcDbEntity
  8
0
100
AcDbLine
 10
157.9752137176952
 20
97.4769728064
 30
0.0
 11
125.4126585353952
 21
88.0769728064
 31
0.0
  0
LINE
  5
BE2
330
1F
100
AcDbEntity
  8
0
100
AcDbLine
 10
124.3734280508952
 20
86.7377423219
 30
0.0
 11
124.3734280508952
 21
14.7710312674
 31
0.0
  0
LINE
  5
BE3
330
1F
100
AcDbEntity
  8
0
100
AcDbLine
 10
126.9734280508952
 20
12.5193652176
 30
0.0
 11
124.3734280508952
 21
14.7710312674
 31
0.0
  0
ARC
  5
BE4
330
1F
100
AcDbEntity
  8
0
100
AcDbCircle
 10
161.2323383946952
 20
93.9752013274
 30
0.0
 40
0.6379639937003776
100
AcDbArc
 50
293.9908701850004
 51
53.20557189149913
  0
ELLIPSE
  5
BE5
330
1F
100
AcDbEntity
  8
0
100
AcDbEllipse
 10
159.8823933946952
 20
22.7121855406
 30
0.0
 11
-1.998963126341011
 21
1.503535837598726
 31
0.0
210
0.0
220
0.0
230
-1.0
 40
0.0428275111
 41
3.745071444744457
 42
4.156588290811945
  0
ARC
  5
BE6
330
1F
100
AcDbEntity
  8
0
100
AcDbCircle
 10
161.1504262793952
 20
22.07560213
 30
0.0
 40
0.734124272966058
100
AcDbArc
 50
297.7044735074002
 51
355.6066056463001
  0
LINE
  5
BE7
330
1F
100
AcDbEntity
  8
0
100
AcDbLine
 10
161.6144442021952
 20
94.486076272
 30
0.0
 11
159.0144442021952
 21
96.7377423219
 31
0.0
  0
LINE
  5
BE8
330
1F
100
AcDbEntity
  8
0
100
AcDbLine
 10
158.8752137176952
 20
96.697549943
 30
0.0
 11
159.0144442021952
 21
96.7377423219
 31
0.0
  0
ARC
  5
BE9
330
1F
100
AcDbEntity
  8
0
100
AcDbCircle
 10
160.9018391731952
 20
21.5483243415
 30
0.0
 40
0.6025125139629096
100
AcDbArc
 50
292.2432406031997
 51
348.2511836422001
  0
LWPOLYLINE
  5
BEA
330
1F
100
AcDbEntity
  8
0
100
AcDbPolyline
 90
        9
 70
   128
 43
0.0
 10
128.9291736743952
 20
12.0256398242
 10
128.8618062780952
 20
11.8620100621
 10
128.7766389033952
 20
11.732971557
 10
128.6754568431952
 20
11.641229236
 10
128.5603810928952
 20
11.5887062169
 10
128.4338238898952
 20
11.5765034963
 10
128.2984381475952
 20
11.6048768697
 10
128.1570618447952
 20
11.6732315695
 10
128.0126585353952
 20
11.780134733
  0
LINE
  5
BEB
330
1F
100
AcDbEntity
  8
0
100
AcDbLine
 10
128.0126585353952
 20
11.780134733
 30
0.0
 11
127.5054788583952
 21
12.2193652176
 31
0.0
  0
LWPOLYLINE
  5
BEC
330
1F
100
AcDbEntity
  8
0
100
AcDbPolyline
 90
        3
 70
   128
 43
0.0
 10
126.6647826658952
 20
86.1265760969
 10
126.5916898159952
 20
86.0771205232
 10
126.4319168108952
 20
85.9550387623
  0
LINE
  5
BED
330
1F
100
AcDbEntity
  8
0
100
AcDbLine
 10
153.1323933946952
 20
99.7884464774
 30
0.0
 11
121.9554788583952
 21
90.7884464774
 31
0.0
  0
ARC
  5
BEE
330
1F
100
AcDbEntity
  8
0
100
AcDbCircle
 10
122.6844742720952
 20
88.4346996537
 30
0.0
 40
2.464053250925258
100
AcDbArc
 50
107.2086421099002
 51
177.1690928843
  0
LINE
  5
BEF
330
1F
100
AcDbEntity
  8
0
100
AcDbLine
 10
120.2234280508952
 20
88.5563956698
 30
0.0
 11
120.2234280508952
 21
20.1403887709
 31
0.0
  0
ARC
  5
BF0
330
1F
100
AcDbEntity
  8
0
100
AcDbCircle
 10
121.4924176900952
 20
20.0908615383
 30
0.0
 40
1.269955767413924
100
AcDbArc
 50
177.7649448216999
 51
291.3846782332996
  0
LINE
  5
BF1
330
1F
100
AcDbEntity
  8
0
100
AcDbLine
 10
121.9554788583952
 20
18.9083379633
 30
0.0
 11
124.3734280508952
 21
19.6063397719
 31
0.0
  0
LINE
  5
BF2
330
1F
100
AcDbEntity
  8
0
100
AcDbLine
 10
154.8644442021952
 20
96.5789709979
 30
0.0
 11
154.8644442021952
 21
98.5563956698
 31
0.0
  0
ARC
  5
BF3
330
1F
100
AcDbEntity
  8
0
100
AcDbCircle
 10
153.5954545629952
 20
98.6059229023
 30
0.0
 40
1.269955767413873
100
AcDbArc
 50
357.7649448216999
 51
111.3846782333002
  0
ARC
  5
BF4
330
1F
100
AcDbEntity
  8
0
100
AcDbCircle
 10
122.4344742720952
 20
88.6512060046
 30
0.0
 40
2.464053250925228
100
AcDbArc
 50
107.2086421098998
 51
177.1690928843
  0
LINE
  5
BF5
330
1F
100
AcDbEntity
  8
0
100
AcDbLine
 10
152.8823933946952
 20
100.0049528283
 30
0.0
 11
121.7054788583952
 21
91.0049528283
 31
0.0
  0
LINE
  5
BF6
330
1F
100
AcDbEntity
  8
0
100
AcDbLine
 10
119.9734280508952
 20
88.7729020208
 30
0.0
 11
119.9734280508952
 21
20.3568951218
 31
0.0
  0
ARC
  5
BF7
330
1F
100
AcDbEntity
  8
0
100
AcDbCircle
 10
153.3367031400952
 20
98.7035747547
 30
0.0
 40
1.378398431242889
100
AcDbArc
 50
51.66317088410045
 51
109.2440420331003
  0
ARC
  5
BF8
330
1F
100
AcDbEntity
  8
0
100
AcDbCircle
 10
121.2735582703952
 20
20.3058378925
 30
0.0
 40
1.301132363922683
100
AcDbArc
 50
177.7511011826001
 51
227.5982054286997
  0
LWPOLYLINE
  5
BF9
330
1F
100
AcDbEntity
  8
0
100
AcDbPolyline
 90
       51
 70
   128
 43
0.0
 10
109.1433010318952
 20
97.4821941643
 10
107.5685192422952
 20
97.0913299297
 10
105.9081785205952
 20
96.8022340232
 10
104.1884634317952
 20
96.61946566
 10
102.4364949102952
 20
96.5459072065
 10
100.6799025461952
 20
96.5827187232
 10
98.94638885039518
 20
96.7293196707
 10
97.26329236939517
 20
96.9833980643
 10
95.65715654029518
 20
97.3409469362
 10
94.15331108439517
 20
97.7963275269
 10
92.77547254289519
 20
98.3423582124
 10
91.54537025279518
 20
98.9704277629
 10
90.48240366199516
 20
99.6706311461
 10
89.60333638859518
 20
100.4319257365
 10
88.92203184859517
 20
101.2423054636
 10
88.44923462169518
 20
102.0889901551
 10
88.19240100239517
 20
102.9586270875
 10
88.15558141059518
 20
103.8375015669
 10
88.33935651299518
 20
104.7117532178
 10
88.74082806649517
 20
105.5675945694
 10
89.35366462489517
 20
106.3915284923
 10
90.16820138969518
 20
107.1705610564
 10
91.17159262939518
 20
107.8924064527
 10
92.34801426479518
 20
108.5456807482
 10
93.67891342389518
 20
109.120081417
 10
95.14330103189516
 20
109.6065498173
 10
96.71808282159517
 20
109.9974140519
 10
98.37842354329518
 20
110.2865099584
 10
100.0981386320952
 20
110.4692783215
 10
101.8501071535952
 20
110.5428367751
 10
103.6066995176952
 20
110.5060252584
 10
105.3402132134952
 20
110.3594243109
 10
107.0233096943952
 20
110.1053459172
 10
108.6294455235952
 20
109.7477970454
 10
110.1332909794952
 20
109.2924164547
 10
111.5111295209952
 20
108.7463857691
 10
112.7412318110952
 20
108.1183162187
 10
113.8041984018952
 20
107.4181128355
 10
114.6832656752952
 20
106.6568182451
 10
115.3645702152952
 20
105.846438518
 10
115.8373674421952
 20
104.9997538265
 10
116.0942010613952
 20
104.1301168941
 10
116.1310206532952
 20
103.2512424147
 10
115.9472455508952
 20
102.3769907638
 10
115.5457739973952
 20
101.5211494122
 10
114.9329374388952
 20
100.6972154893
 10
114.1184006741952
 20
99.9181829252
 10
113.1150094344952
 20
99.1963375288
 10
111.9385877990952
 20
98.5430632334
 10
110.6076886399952
 20
97.9686625646
 10
109.1433010318952
 20
97.4821941643
  0
LWPOLYLINE
  5
BFA
330
1F
100
AcDbEntity
  8
0
100
AcDbPolyline
 90
       18
 70
   128
 43
0.0
 10
109.1433010318952
 20
95.7501433567
 10
107.5685192422952
 20
95.3592791221
 10
105.9081785205952
 20
95.0701832156
 10
104.1884634317952
 20
94.8874148525
 10
102.4364949102952
 20
94.8138563989
 10
100.6799025461952
 20
94.8506679156
 10
98.94638885039518
 20
94.9972688631
 10
97.26329236939517
 20
95.2513472568
 10
95.65715654029518
 20
95.6088961286
 10
94.15331108439517
 20
96.0642767193
 10
92.77547254289519
 20
96.6103074049
 10
91.54537025279518
 20
97.2383769553
 10
90.48240366199516
 20
97.9385803385
 10
89.60333638859518
 20
98.6998749289
 10
88.92203184859517
 20
99.510254656
 10
88.44923462169518
 20
100.3569393475
 10
88.19240100239517
 20
101.2265762799
 10
88.14330103189516
 20
101.8123211832
  0
LWPOLYLINE
  5
BFB
330
1F
100
AcDbEntity
  8
0
100
AcDbPolyline
 90
       10
 70
   128
 43
0.0
 10
116.1433010318952
 20
101.8123211832
 10
116.1310206532952
 20
101.5191916071
 10
115.9472455508952
 20
100.6449399562
 10
115.5457739973952
 20
99.7890986046
 10
114.9329374388952
 20
98.9651646817
 10
114.1184006741952
 20
98.1861321176
 10
113.1150094344952
 20
97.4642867213
 10
111.9385877990952
 20
96.8110124258
 10
110.6076886399952
 20
96.236611757
 10
109.1433010318952
 20
95.7501433567
  0
LWPOLYLINE
  5
BFC
330
1F
100
AcDbEntity
  8
0
100
AcDbPolyline
 90
        3
 70
   128
 43
0.0
 10
88.14330103189516
 20
-50.4349448021
 10
88.20296499369519
 20
-51.0805126029
 10
88.38559212249518
 20
-51.7316180032
  0
ARC
  5
BFD
330
1F
100
AcDbEntity
  8
0
100
AcDbCircle
 10
112.3740412006952
 20
-50.4097528146
 30
0.0
 40
3.769344016079891
100
AcDbArc
 50
331.4785825337001
 51
359.6170672411
  0
ARC
  5
BFE
330
1F
100
AcDbEntity
  8
0
100
AcDbCircle
 10
92.70668920169518
 20
25.1076410316
 30
0.0
 40
4.567697944030941
100
AcDbArc
 50
182.4891459267
 51
233.3640258775
  0
LWPOLYLINE
  5
BFF
330
1F
100
AcDbEntity
  8
0
100
AcDbPolyline
 90
       17
 70
   128
 43
0.0
 10
113.2281324695952
 20
20.6335632796
 10
112.4961693669952
 20
20.1970971098
 10
111.2333513483952
 20
19.5854747311
 10
109.8271778060952
 20
19.0578117103
 10
108.2998249369952
 20
18.6224296086
 10
106.6753800081952
 20
18.2861946618
 10
104.9794614865952
 20
18.0544094958
 10
103.2388150202952
 20
17.9307295011
 10
101.4808916440952
 20
17.9171051852
 10
99.73341485959517
 20
18.0137514116
 10
98.02394341959518
 20
18.2191440117
 10
96.37943670999519
 20
18.5300438214
 10
94.82582958379518
 20
18.941547765
 10
93.38762335369518
 20
19.4471661795
 10
92.08749939099516
 20
20.0389251605
 10
90.94596142709517
 20
20.7074923153
 10
89.98101219779517
 20
21.4423239405
  0
LWPOLYLINE
  5
C00
330
1F
100
AcDbEntity
  8
0
100
AcDbPolyline
 90
       22
 70
   128
 43
0.0
 10
116.1433010318952
 20
28.2001618615
 10
116.0584334245952
 20
27.4305693565
 10
115.7557974149952
 20
26.5646235541
 10
115.2384842057952
 20
25.7244711679
 10
114.5146521352952
 20
24.9233619028
 10
113.5957164674952
 20
24.1739297306
 10
112.4961693669952
 20
23.4879936442
 10
111.2333513483952
 20
22.8763712654
 10
109.8271778060952
 20
22.3487082447
 10
108.2998249369952
 20
21.913326143
 10
106.6753800081952
 20
21.5770911962
 10
104.9794614865952
 20
21.3453060302
 10
103.2388150202952
 20
21.2216260355
 10
101.4808916440952
 20
21.2080017196
 10
99.73341485959517
 20
21.304647946
 10
98.02394341959518
 20
21.5100405461
 10
96.37943670999519
 20
21.8209403558
 10
94.82582958379518
 20
22.2324442994
 10
93.38762335369518
 20
22.7380627139
 10
92.08749939099516
 20
23.3298216949
 10
90.94596142709517
 20
23.9983888496
 10
89.98101219779517
 20
24.7332204748
  0
LINE
  5
C01
330
1F
100
AcDbEntity
  8
0
100
AcDbLine
 10
114.6859326770952
 20
-1.4922027924
 30
0.0
 11
111.4816386830952
 21
-2.4172027924
 31
0.0
  0
LINE
  5
C02
330
1F
100
AcDbEntity
  8
0
100
AcDbLine
 10
111.4816386830952
 20
-73.950901145
 30
0.0
 11
111.4816386830952
 21
-2.4172027924
 31
0.0
  0
LINE
  5
C03
330
1F
100
AcDbEntity
  8
0
100
AcDbLine
 10
114.6859326770952
 20
-73.025901145
 30
0.0
 11
111.4816386830952
 21
-73.950901145
 31
0.0
  0
LINE
  5
C04
330
1F
100
AcDbEntity
  8
0
100
AcDbLine
 10
115.6733834636952
 20
-0.5143299806
 30
0.0
 11
114.8653555404952
 21
-0.7475875501
 31
0.0
  0
ARC
  5
C05
330
1F
100
AcDbEntity
  8
0
100
AcDbCircle
 10
114.5692661008952
 20
-0.6125936283
 30
0.0
 40
0.3254109941836668
100
AcDbArc
 50
278.7814717320017
 51
335.4906768427
  0
LINE
  5
C06
330
1F
100
AcDbEntity
  8
0
100
AcDbLine
 10
114.6189453789952
 20
-0.9341900905
 30
0.0
 11
110.9816386830952
 21
-1.9841900905
 31
0.0
  0
LINE
  5
C07
330
1F
100
AcDbEntity
  8
0
100
AcDbLine
 10
111.4816386830952
 20
-2.4172027924
 30
0.0
 11
110.9816386830952
 21
-1.9841900905
 31
0.0
  0
LWPOLYLINE
  5
C08
330
1F
100
AcDbEntity
  8
0
100
AcDbPolyline
 90
        9
 70
   128
 43
0.0
 10
115.6733834636952
 20
-0.5143299806
 10
115.6848550958952
 20
-0.6589994981
 10
115.6544249787952
 20
-0.802980993
 10
115.5827309934952
 20
-0.943256301
 10
115.4712760016952
 20
-1.0768849471
 10
115.3223963414952
 20
-1.2010657854
 10
115.1392128535952
 20
-1.3131957159
 10
114.9255654611952
 20
-1.4109242523
 10
114.6859326770952
 20
-1.4922027924
  0
LINE
  5
C09
330
1F
100
AcDbEntity
  8
0
100
AcDbLine
 10
110.9816386830952
 20
-73.5178884431
 30
0.0
 11
110.9816386830952
 21
-1.9841900905
 31
0.0
  0
LINE
  5
C0A
330
1F
100
AcDbEntity
  8
0
100
AcDbLine
 10
110.9816386830952
 20
-73.5178884431
 30
0.0
 11
111.4816386830952
 21
-73.950901145
 31
0.0
  0
LINE
  5
C0B
330
1F
100
AcDbEntity
  8
0
100
AcDbLine
 10
110.8816386830952
 20
-1.7243824693
 30
0.0
 11
98.88163868309519
 21
8.6679223761
 31
0.0
  0
LINE
  5
C0C
330
1F
100
AcDbEntity
  8
0
100
AcDbLine
 10
110.8816386830952
 20
-1.7243824693
 30
0.0
 11
110.8816386830952
 21
-0.8583570656
 31
0.0
  0
LINE
  5
C0D
330
1F
100
AcDbEntity
  8
0
100
AcDbLine
 10
110.8816386830952
 20
-0.8583570656
 30
0.0
 11
98.73163868309518
 21
9.6638515904
 31
0.0
  0
ARC
  5
C0E
330
1F
100
AcDbEntity
  8
0
100
AcDbCircle
 10
114.5452676633952
 20
-1.1375320977
 30
0.0
 40
1.288808029800026
100
AcDbArc
 50
28.91746488350022
 51
110.8794525859002
  0
LINE
  5
C0F
330
1F
100
AcDbEntity
  8
0
100
AcDbLine
 10
114.0859326770952
 20
0.0666429344
 30
0.0
 11
110.8816386830952
 21
-0.8583570656
 31
0.0
  0
LINE
  5
C10
330
1F
100
AcDbEntity
  8
0
100
AcDbLine
 10
114.5189453789952
 20
-0.6743824693
 30
0.0
 11
110.8816386830952
 21
-1.7243824693
 31
0.0
  0
ARC
  5
C11
330
1F
100
AcDbEntity
  8
0
100
AcDbCircle
 10
114.6324498955952
 20
-0.9934911123
 30
0.0
 40
0.3386939640722653
100
AcDbArc
 50
46.5549887923008
 51
109.5800857916021
  0
LINE
  5
C12
330
1F
100
AcDbEntity
  8
0
100
AcDbLine
 10
101.9359326770952
 20
10.5888515904
 30
0.0
 11
98.73163868309518
 21
9.6638515904
 31
0.0
  0
LWPOLYLINE
  5
C13
330
1F
100
AcDbEntity
  8
0
100
AcDbPolyline
 90
        9
 70
   128
 43
0.0
 10
114.6859326770952
 20
-73.025901145
 10
114.9255654611952
 20
-72.9446226049
 10
115.1392128535952
 20
-72.8468940685
 10
115.3223963414952
 20
-72.734764138
 10
115.4712760016952
 20
-72.6105832997
 10
115.5827309934952
 20
-72.4769546535
 10
115.6544249787952
 20
-72.3366793456
 10
115.6848550958952
 20
-72.1926978507
 10
115.6859326770952
 20
-72.1598757412
  0
ARC
  5
C14
330
1F
100
AcDbEntity
  8
0
100
AcDbCircle
 10
102.4786125891952
 20
9.4750221981
 30
0.0
 40
1.177414017211822
100
AcDbArc
 50
49.37456748799987
 51
77.40028768490058
  0
LINE
  5
C15
330
1F
100
AcDbEntity
  8
0
100
AcDbLine
 10
111.0316386830952
 20
-73.5611897133
 30
0.0
 11
110.8816386830952
 21
-73.6044909835
 31
0.0
  0
LINE
  5
C16
330
1F
100
AcDbEntity
  8
0
100
AcDbLine
 10
110.8816386830952
 20
-74.4705163872
 30
0.0
 11
110.8816386830952
 21
-73.6044909835
 31
0.0
  0
LINE
  5
C17
330
1F
100
AcDbEntity
  8
0
100
AcDbLine
 10
114.0859326770952
 20
-73.5455163872
 30
0.0
 11
110.8816386830952
 21
-74.4705163872
 31
0.0
  0
ARC
  5
C18
330
1F
100
AcDbEntity
  8
0
100
AcDbCircle
 10
113.3672315742952
 20
-71.2275490372
 30
0.0
 40
2.426830012813428
100
AcDbArc
 50
287.2263953773998
 51
319.3603801762001
  0
LINE
  5
C19
330
1F
100
AcDbEntity
  8
0
100
AcDbLine
 10
110.8816386830952
 20
-73.6044909835
 30
0.0
 11
98.88163868309519
 21
-63.212186138
 31
0.0
  0
LINE
  5
C1A
330
1F
100
AcDbEntity
  8
0
100
AcDbLine
 10
110.8816386830952
 20
-74.4705163872
 30
0.0
 11
98.88163868309519
 21
-64.0782115418
 31
0.0
  0
LWPOLYLINE
  5
C1B
330
1F
100
AcDbEntity
  8
0
100
AcDbPolyline
 90
        3
 70
   128
 43
0.0
 10
126.5661759443952
 20
85.838766942
 10
126.6004123588952
 20
85.8835368193
 10
126.7439175163952
 20
86.0580433061
  0
LINE
  5
C1C
330
1F
100
AcDbEntity
  8
0
100
AcDbLine
 10
154.1117552324952
 20
102.8063196501
 30
0.0
 11
155.4804696059952
 21
101.6209782321
 31
0.0
  0
ARC
  5
C1D
330
1F
100
AcDbEntity
  8
0
100
AcDbCircle
 10
152.4063384080952
 20
100.2462699493
 30
0.0
 40
3.076085339459195
100
AcDbArc
 50
56.32981595480025
 51
100.8285919938
  0
LINE
  5
C1E
330
1F
100
AcDbEntity
  8
0
100
AcDbLine
 10
124.4925901072952
 20
99.3483684096
 30
0.0
 11
151.8284297132952
 21
103.267581346
 31
0.0
  0
LWPOLYLINE
  5
C1F
330
1F
100
AcDbEntity
  8
0
100
AcDbPolyline
 90
       10
 70
   128
 43
0.0
 10
116.2143113377952
 20
102.2641698778
 10
116.4237289816952
 20
101.6288857522
 10
116.8795106451952
 20
101.0267100084
 10
117.5637681177952
 20
100.4812764328
 10
118.4496461249952
 20
100.0139918335
 10
119.5023763257952
 20
99.6431958806
 10
120.6806418770952
 20
99.3834413228
 10
121.9381990092952
 20
99.2449228314
 10
123.2256919703952
 20
99.2330768864
 10
124.4925901072952
 20
99.3483684096
  0
LWPOLYLINE
  5
C20
330
1F
100
AcDbEntity
  8
0
100
AcDbPolyline
 90
       17
 70
   128
 43
0.0
 10
104.9423502848952
 20
94.9026301033
 10
103.2072832210952
 20
94.7824217902
 10
101.4557955962952
 20
94.7707067328
 10
99.71491832289519
 20
94.8676657307
 10
98.01151856239517
 20
95.0718024045
 10
96.37188508179517
 20
95.3799662892
 10
94.82132253529517
 20
95.7874014557
 10
93.38376093509518
 20
96.2878199095
 10
92.08138633679516
 20
96.8734986346
 10
90.93429843919517
 20
97.5353987829
 10
89.96020038319517
 20
98.2633051723
 10
89.17412553749517
 20
99.045983939
 10
88.58820548679518
 20
99.8713559104
 10
88.21148280329518
 20
100.7266830247
 10
88.04977149219516
 20
101.598764919
 10
88.10556726279518
 20
102.4741426521
 10
88.14330103189516
 20
102.6504739139
  0
LINE
  5
C21
330
1F
100
AcDbEntity
  8
0
100
AcDbLine
 10
116.1433010318952
 20
102.6504739139
 30
0.0
 11
116.2143113377952
 21
102.2641698778
 31
0.0
  0
ARC
  5
C22
330
1F
100
AcDbEntity
  8
0
100
AcDbCircle
 10
107.5277664076952
 20
75.955041233
 30
0.0
 40
19.12316659258023
100
AcDbArc
 50
60.19571323460005
 51
97.77007621219997
  0
LINE
  5
C23
330
1F
100
AcDbEntity
  8
0
100
AcDbLine
 10
118.8427805378952
 20
91.3030887755
 30
0.0
 11
117.0327237943952
 21
92.5487534639
 31
0.0
  0
ARC
  5
C24
330
1F
100
AcDbEntity
  8
0
100
AcDbCircle
 10
119.2523548982952
 20
92.0428801094
 30
0.0
 40
0.845601782384138
100
AcDbArc
 50
241.0295522931002
 51
286.8373982571001
  0
LINE
  5
C25
330
1F
100
AcDbEntity
  8
0
100
AcDbLine
 10
155.4804696059952
 20
101.6209782321
 30
0.0
 11
119.4972890350952
 21
91.2335287377
 31
0.0
  0
ARC
  5
C26
330
1F
100
AcDbEntity
  8
0
100
AcDbCircle
 10
107.5277664076952
 20
2.3428819113
 30
0.0
 40
19.12316659258033
100
AcDbArc
 50
60.19571323460001
 51
97.77007621220001
  0
ARC
  5
C27
330
1F
100
AcDbEntity
  8
0
100
AcDbCircle
 10
119.2523548982952
 20
18.4307207878
 30
0.0
 40
0.8456017823840107
100
AcDbArc
 50
241.0295522931001
 51
286.8373982571007
  0
LINE
  5
C28
330
1F
100
AcDbEntity
  8
0
100
AcDbLine
 10
118.8427805378952
 20
17.6909294539
 30
0.0
 11
117.0327237943952
 21
18.9365941423
 31
0.0
  0
LINE
  5
C29
330
1F
100
AcDbEntity
  8
0
100
AcDbLine
 10
155.4804696059952
 20
101.6209782321
 30
0.0
 11
155.4804696059952
 21
96.7568022142
 31
0.0
  0
LINE
  5
C2A
330
1F
100
AcDbEntity
  8
0
100
AcDbLine
 10
124.3734280508952
 20
19.0289895027
 30
0.0
 11
119.4972890350952
 21
17.621369416
 31
0.0
  0
LWPOLYLINE
  5
C2B
330
1F
100
AcDbEntity
  8
0
100
AcDbPolyline
 90
       16
 70
   128
 43
0.0
 10
104.9423502848952
 20
21.2904707816
 10
103.2072832210952
 20
21.1702624686
 10
101.4557955962952
 20
21.1585474111
 10
99.71491832289519
 20
21.255506409
 10
98.01151856239517
 20
21.4596430828
 10
96.37188508179517
 20
21.7678069675
 10
94.82132253529517
 20
22.175242134
 10
93.38376093509518
 20
22.6756605878
 10
92.08138633679516
 20
23.2613393129
 10
90.93429843919517
 20
23.9232394612
 10
89.96020038319517
 20
24.6511458507
 10
89.17412553749517
 20
25.4338246173
 10
88.58820548679518
 20
26.2591965887
 10
88.21148280329518
 20
27.114523703
 10
88.04977149219516
 20
27.9866055974
 10
88.04330103189517
 20
28.2001618615
  0
LINE
  5
C2C
330
1F
100
AcDbEntity
  8
0
100
AcDbLine
 10
113.2199072732952
 20
-1.0493824693
 30
0.0
 11
111.0548437637952
 21
-1.6743824693
 31
0.0
  0
LINE
  5
C2D
330
1F
100
AcDbEntity
  8
0
100
AcDbLine
 10
111.0548437637952
 20
-1.6743824693
 30
0.0
 11
110.6218310618952
 21
-2.2323951712
 31
0.0
  0
LINE
  5
C2E
330
1F
100
AcDbEntity
  8
0
100
AcDbLine
 10
110.6218310618952
 20
-2.2323951712
 30
0.0
 11
110.6218310618952
 21
-73.2464782816
 31
0.0
  0
LINE
  5
C2F
330
1F
100
AcDbEntity
  8
0
100
AcDbLine
 10
110.9816386830952
 20
-73.5024183892
 30
0.0
 11
110.6218310618952
 21
-73.2464782816
 31
0.0
  0
LINE
  5
C30
330
1F
100
AcDbEntity
  8
0
100
AcDbLine
 10
106.6218310618952
 20
1.2317064439
 30
0.0
 11
106.7950361426952
 21
1.4549115247
 31
0.0
  0
LINE
  5
C31
330
1F
100
AcDbEntity
  8
0
100
AcDbLine
 10
106.6218310618952
 20
1.2317064439
 30
0.0
 11
110.6218310618952
 21
-2.2323951712
 31
0.0
  0
LINE
  5
C32
330
1F
100
AcDbEntity
  8
0
100
AcDbLine
 10
98.96202344079518
 20
8.5983071338
 30
0.0
 11
98.79503614269518
 21
8.3831147549
 31
0.0
  0
LINE
  5
C33
330
1F
100
AcDbEntity
  8
0
100
AcDbLine
 10
106.7950361426952
 20
1.4549115247
 30
0.0
 11
98.79503614269518
 21
8.3831147549
 31
0.0
  0
LINE
  5
C34
330
1F
100
AcDbEntity
  8
0
100
AcDbLine
 10
106.6218310618952
 20
1.2317064439
 30
0.0
 11
106.6218310618952
 21
-32.1677594898
 31
0.0
  0
LWPOLYLINE
  5
C35
330
1F
100
AcDbEntity
  8
0
100
AcDbPolyline
 90
        9
 70
   128
 43
0.0
 10
106.6218310618952
 20
-32.1677594898
 10
106.8639724481952
 20
-32.8077971005
 10
107.0458438778952
 20
-33.4770207113
 10
107.1586207653952
 20
-34.1429589157
 10
107.1968310618952
 20
-34.7732997184
 10
107.1586207653952
 20
-35.3374583461
 10
107.0458438778952
 20
-35.8080612515
 10
106.8639724481952
 20
-36.1622743056
 10
106.6218310618952
 20
-36.3829107327
  0
LINE
  5
C36
330
1F
100
AcDbEntity
  8
0
100
AcDbLine
 10
106.6218310618952
 20
-36.3829107327
 30
0.0
 11
106.6218310618952
 21
-69.7823766664
 31
0.0
  0
LINE
  5
C37
330
1F
100
AcDbEntity
  8
0
100
AcDbLine
 10
106.6218310618952
 20
-69.7823766664
 30
0.0
 11
110.6218310618952
 21
-73.2464782816
 31
0.0
  0
LWPOLYLINE
  5
C38
330
1F
100
AcDbEntity
  8
0
100
AcDbPolyline
 90
       18
 70
   128
 43
0.0
 10
106.6218310618952
 20
-36.3972105353
 10
106.4403868548952
 20
-36.4066616678
 10
106.0404354172952
 20
-36.2664954379
 10
105.6232575097952
 20
-35.922251393
 10
105.2181380708952
 20
-35.3980946808
 10
104.8535155622952
 20
-34.7308199083
 10
104.5549856534952
 20
-33.9672682444
 10
104.3435044638952
 20
-33.1610392762
 10
104.2339174911952
 20
-32.3687284407
 10
104.2339174911952
 20
-31.6459541532
 10
104.3435044638952
 20
-31.0434535223
 10
104.5549856534952
 20
-30.6035207194
 10
104.8535155622952
 20
-30.3570380251
 10
105.2181380708952
 20
-30.3213079631
 10
105.6232575097952
 20
-30.4988387021
 10
106.0404354172952
 20
-30.8771679889
 10
106.4403868548952
 20
-31.4297379694
 10
106.6218310618952
 20
-31.7534596873
  0
LINE
  5
C39
330
1F
100
AcDbEntity
  8
0
100
AcDbLine
 10
98.79503614269518
 20
8.3831147549
 30
0.0
 11
98.79503614269518
 21
9.5089477799
 31
0.0
  0
LINE
  5
C3A
330
1F
100
AcDbEntity
  8
0
100
AcDbLine
 10
93.29503614269518
 20
14.2720875007
 30
0.0
 11
98.79503614269518
 21
9.5089477799
 31
0.0
  0
LINE
  5
C3B
330
1F
100
AcDbEntity
  8
0
100
AcDbLine
 10
93.29503614269518
 20
14.2720875007
 30
0.0
 11
93.29503614269518
 21
-59.340071821
 31
0.0
  0
LINE
  5
C3C
330
1F
100
AcDbEntity
  8
0
100
AcDbLine
 10
93.29503614269518
 20
-59.340071821
 30
0.0
 11
98.79503614269518
 21
-64.1032115418
 31
0.0
  0
LINE
  5
C3D
330
1F
100
AcDbEntity
  8
0
100
AcDbLine
 10
98.79503614269518
 20
-62.9773785169
 30
0.0
 11
98.79503614269518
 21
-64.1032115418
 31
0.0
  0
LINE
  5
C3E
330
1F
100
AcDbEntity
  8
0
100
AcDbLine
 10
106.6218310618952
 20
-69.7555817472
 30
0.0
 11
98.79503614269518
 21
-62.9773785169
 31
0.0
  0
LWPOLYLINE
  5
C3F
330
1F
100
AcDbEntity
  8
0
100
AcDbPolyline
 90
       24
 70
   128
 43
0.0
 10
101.2200361426952
 20
-57.5430691082
 10
101.2784414150952
 20
-56.8576493561
 10
101.4493255804952
 20
-56.3242249507
 10
101.7200149420952
 20
-55.98235754
 10
102.0704337082952
 20
-55.8574018657
 10
102.4745929220952
 20
-55.9586253187
 10
102.9025179436952
 20
-56.2785206184
 10
103.3224715318952
 20
-56.793362594
 10
103.7033076499952
 20
-57.4649677714
 10
104.0167814254952
 20
-58.2435262668
 10
104.2396439425952
 20
-59.0712959585
 10
104.3553665076952
 20
-59.8868849551
 10
104.3553665076952
 20
-60.6298047519
 10
104.2396439425952
 20
-61.2449563861
 10
104.0167814254952
 20
-61.6867168752
 10
103.7033076499952
 20
-61.9223228646
 10
103.3224715318952
 20
-61.934300536
 10
102.9025179436952
 20
-61.7217615601
 10
102.4745929220952
 20
-61.3004689806
 10
102.0704337082952
 20
-60.7016681408
 10
101.7200149420952
 20
-59.9697693597
 10
101.4493255804952
 20
-59.1590542216
 10
101.2784414150952
 20
-58.3296497595
 10
101.2200361426952
 20
-57.5430691082
  0
LWPOLYLINE
  5
C40
330
1F
100
AcDbEntity
  8
0
100
AcDbPolyline
 90
       24
 70
   128
 43
0.0
 10
101.2200361426952
 20
-1.2514178622
 10
101.2784414150952
 20
-0.5659981101
 10
101.4493255804952
 20
-0.0325737047
 10
101.7200149420952
 20
0.309293706
 10
102.0704337082952
 20
0.4342493803
 10
102.4745929220952
 20
0.3330259273
 10
102.9025179436952
 20
0.0131306276
 10
103.3224715318952
 20
-0.501711348
 10
103.7033076499952
 20
-1.1733165254
 10
104.0167814254952
 20
-1.9518750208
 10
104.2396439425952
 20
-2.7796447125
 10
104.3553665076952
 20
-3.5952337091
 10
104.3553665076952
 20
-4.3381535059
 10
104.2396439425952
 20
-4.9533051401
 10
104.0167814254952
 20
-5.3950656292
 10
103.7033076499952
 20
-5.6306716187
 10
103.3224715318952
 20
-5.64264929
 10
102.9025179436952
 20
-5.4301103141
 10
102.4745929220952
 20
-5.0088177346
 10
102.0704337082952
 20
-4.4100168948
 10
101.7200149420952
 20
-3.6781181137
 10
101.4493255804952
 20
-2.8674029756
 10
101.2784414150952
 20
-2.0379985135
 10
101.2200361426952
 20
-1.2514178622
  0
ARC
  5
C41
330
1F
100
AcDbEntity
  8
0
100
AcDbCircle
 10
108.5046715914952
 20
-0.9671780915
 30
0.0
 40
5.759266747365769
100
AcDbArc
 50
169.5998160175
 51
222.6044114864
  0
LWPOLYLINE
  5
C42
330
1F
100
AcDbEntity
  8
0
100
AcDbPolyline
 90
       15
 70
   128
 43
0.0
 10
104.9316041525952
 20
14.4945239912
 10
104.0593306210952
 20
14.3087034811
 10
103.1234642555952
 20
14.2326569371
 10
102.1783942072952
 20
14.270803908
 10
101.2790445124952
 20
14.4209274304
 10
100.4776821061952
 20
14.6743028709
 10
99.82087925879517
 20
15.0162049699
 10
99.34680696429518
 20
15.4267636202
 10
99.08301658129517
 20
15.8821186453
 10
99.04483864809518
 20
16.3558064663
 10
99.23449192729518
 20
16.8202980688
 10
99.64095445969517
 20
17.2485988893
 10
100.2406041203952
 20
17.6158176409
 10
100.9985914506952
 20
17.9006129045
 10
101.0994527172952
 20
17.9287499326
  0
LWPOLYLINE
  5
C43
330
1F
100
AcDbEntity
  8
0
100
AcDbPolyline
 90
       11
 70
   128
 43
0.0
 10
104.4965718531952
 20
18.0088646786
 10
104.6511510908952
 20
17.9742094653
 10
105.4525134970952
 20
17.7208340247
 10
106.1093163445952
 20
17.3789319257
 10
106.5833886390952
 20
16.9683732755
 10
106.8471790219952
 20
16.5130182504
 10
106.8853569552952
 20
16.0393304294
 10
106.6957036760952
 20
15.5748388269
 10
106.2892411435952
 20
15.1465380064
 10
105.6895914828952
 20
14.7793192548
 10
104.9316041525952
 20
14.4945239912
  0
ARC
  5
C44
330
1F
100
AcDbEntity
  8
0
100
AcDbCircle
 10
102.7933757137952
 20
10.7325183434
 30
0.0
 40
0.1037464689325493
100
AcDbArc
 50
145.6547078321023
 51
236.0601360330993
  0
ARC
  5
C45
330
1F
100
AcDbEntity
  8
0
100
AcDbCircle
 10
103.5496289607952
 20
9.8997123912
 30
0.0
 40
1.226090547825552
100
AcDbArc
 50
81.3436050618997
 51
133.3665830511004
  0
ARC
  5
C46
330
1F
100
AcDbEntity
  8
0
100
AcDbCircle
 10
103.7295518379952
 20
10.7228065246
 30
0.0
 40
0.3890570335375965
100
AcDbArc
 50
54.09417495240081
 51
89.32046602150092
  0
LINE
  5
C47
330
1F
100
AcDbEntity
  8
0
100
AcDbLine
 10
103.9577161667952
 20
11.0379357273
 30
0.0
 11
103.9911885653952
 21
11.0089477799
 31
0.0
  0
LINE
  5
C48
330
1F
100
AcDbEntity
  8
0
100
AcDbLine
 10
109.9214756385952
 20
12.7208741989
 30
0.0
 11
103.9911885653952
 21
11.0089477799
 31
0.0
  0
LWPOLYLINE
  5
C49
330
1F
100
AcDbEntity
  8
0
100
AcDbPolyline
 90
        9
 70
   128
 43
0.0
 10
110.8908861521952
 20
13.7611280652
 10
110.9209769309952
 20
13.609229971
 10
110.9044805398952
 20
13.4568115927
 10
110.8417813346952
 20
13.3074241864
 10
110.7343401690952
 20
13.164548388
 10
110.5846603570952
 20
13.0315131174
 10
110.3962293477952
 20
12.9114180157
 10
110.1734374695952
 20
12.8070612262
 10
109.9214756385952
 20
12.7208741989
  0
ARC
  5
C4A
330
1F
100
AcDbEntity
  8
0
100
AcDbCircle
 10
116.9043341381952
 20
15.4451759409
 30
0.0
 40
6.244803754094596
100
AcDbArc
 50
124.4776757750999
 51
195.6447418537
  0
ARC
  5
C4B
330
1F
100
AcDbEntity
  8
0
100
AcDbCircle
 10
91.88128470399516
 20
24.9060140784
 30
0.0
 40
3.83151178900357
100
AcDbArc
 50
167.3143986683001
 51
216.9252567950001
  0
ARC
  5
C4C
330
1F
100
AcDbEntity
  8
0
100
AcDbCircle
 10
86.55587407479518
 20
20.9543568845
 30
0.0
 40
2.800065585753034
100
AcDbArc
 50
315.3919353561
 51
36.10002904759993
  0
ARC
  5
C4D
330
1F
100
AcDbEntity
  8
0
100
AcDbCircle
 10
88.98621087109518
 20
18.5846162537
 30
0.0
 40
0.5946394714947371
100
AcDbArc
 50
137.2836200111006
 51
235.9824038115
  0
LINE
  5
C4E
330
1F
100
AcDbEntity
  8
0
100
AcDbLine
 10
88.65354131489516
 20
18.0917399331
 30
0.0
 11
93.12183106189516
 21
14.2220875007
 31
0.0
  0
LINE
  5
C4F
330
1F
100
AcDbEntity
  8
0
100
AcDbLine
 10
93.12183106189516
 20
14.2220875007
 30
0.0
 11
93.29503614269518
 21
14.2720875007
 31
0.0
  0
LINE
  5
C50
330
1F
100
AcDbEntity
  8
0
100
AcDbLine
 10
98.79503614269518
 20
9.5089477799
 30
0.0
 11
102.7354517298952
 21
10.6464477799
 31
0.0
  0
LINE
  5
C51
330
1F
100
AcDbEntity
  8
0
100
AcDbLine
 10
102.7354517298952
 20
10.6464477799
 30
0.0
 11
102.7354517298952
 21
10.5200510446
 31
0.0
  0
LINE
  5
C52
330
1F
100
AcDbEntity
  8
0
100
AcDbLine
 10
103.9911885653952
 20
11.0089477799
 30
0.0
 11
103.9911885653952
 21
9.7226482834
 31
0.0
  0
ARC
  5
C53
330
1F
100
AcDbEntity
  8
0
100
AcDbCircle
 10
111.6084797937952
 20
-31.6972402356
 30
0.0
 40
5.858960421999121
100
AcDbArc
 50
169.9161935055
 51
220.2136965456
  0
LWPOLYLINE
  5
C54
330
1F
100
AcDbEntity
  8
0
100
AcDbPolyline
 90
       16
 70
   128
 43
0.0
 10
99.51506792009516
 20
15.2533911962
 10
99.47737279429518
 20
15.4016131692
 10
99.51411167189517
 20
15.8398947017
 10
99.76768869989519
 20
16.2598385204
 10
100.2221707009952
 20
16.6350580105
 10
100.8490008995952
 20
16.9419767515
 10
101.6087932490952
 20
17.1613099103
 10
102.4538072016952
 20
17.2792759777
 10
103.3309474230952
 20
17.2884627119
 10
104.1850999672952
 20
17.1882928766
 10
104.9625952885952
 20
16.985060511
 10
105.6145804963952
 20
16.691535452
 10
106.1000889624952
 20
16.3261609586
 10
106.3886144041952
 20
15.9118948539
 10
106.4620277069952
 20
15.474767001
 10
106.4151276831952
 20
15.2533911961
  0
LWPOLYLINE
  5
C55
330
1F
100
AcDbEntity
  8
0
100
AcDbPolyline
 90
       13
 70
   128
 43
0.0
 10
99.53429233359518
 20
15.2360380591
 10
99.76768869989519
 20
15.6015708344
 10
100.2221707009952
 20
15.9767903245
 10
100.8490008995952
 20
16.2837090655
 10
101.6087932490952
 20
16.5030422243
 10
102.4538072016952
 20
16.6210082917
 10
103.3309474230952
 20
16.6301950259
 10
104.1850999672952
 20
16.5300251906
 10
104.9625952885952
 20
16.326792825
 10
105.6145804963952
 20
16.033267766
 10
106.1000889624952
 20
15.6678932725
 10
106.3886144041952
 20
15.2536271679
 10
106.4026381509952
 20
15.218915552
  0
ARC
  5
C56
330
1F
100
AcDbEntity
  8
0
100
AcDbCircle
 10
102.9650978016952
 20
9.1905934249
 30
0.0
 40
6.016534762248694
100
AcDbArc
 50
65.64558251849996
 51
114.3544174815
  0
LINE
  5
C57
330
1F
100
AcDbEntity
  8
0
100
AcDbLine
 10
88.65354131489516
 20
-55.5204193886
 30
0.0
 11
93.12183106189516
 21
-59.390071821
 31
0.0
  0
LINE
  5
C58
330
1F
100
AcDbEntity
  8
0
100
AcDbLine
 10
93.12183106189516
 20
14.2220875007
 30
0.0
 11
93.12183106189516
 21
-59.390071821
 31
0.0
  0
LINE
  5
C59
330
1F
100
AcDbEntity
  8
0
100
AcDbLine
 10
93.12183106189516
 20
-59.390071821
 30
0.0
 11
93.29503614269518
 21
-59.340071821
 31
0.0
  0
ARC
  5
C5A
330
1F
100
AcDbEntity
  8
0
100
AcDbCircle
 10
91.84248748169517
 20
-48.6705648731
 30
0.0
 40
3.799323999390217
100
AcDbArc
 50
180.4875458289
 51
204.5124462358999
  0
ARC
  5
C5B
330
1F
100
AcDbEntity
  8
0
100
AcDbCircle
 10
112.3451867754952
 20
-48.6562900142
 30
0.0
 40
3.898392833902982
100
AcDbArc
 50
328.9763526414
 51
359.3150318346001
  0
ARC
  5
C5C
330
1F
100
AcDbEntity
  8
0
100
AcDbCircle
 10
89.04831091689519
 20
-54.9870662268
 30
0.0
 40
0.6635575588037551
100
AcDbArc
 50
182.8811381614999
 51
233.4924327024994
  0
ARC
  5
C5D
330
1F
100
AcDbEntity
  8
0
100
AcDbCircle
 10
108.5046715914952
 20
-57.2588293374
 30
0.0
 40
5.759266747371685
100
AcDbArc
 50
169.5998160175999
 51
222.6044114864
  0
LINE
  5
C5E
330
1F
100
AcDbEntity
  8
0
100
AcDbLine
 10
98.79503614269518
 20
-64.1032115418
 30
0.0
 11
98.88163868309519
 21
-64.0782115418
 31
0.0
  0
LINE
  5
C5F
330
1F
100
AcDbEntity
  8
0
  6
Continuous
 62
     8
370
     0
100
AcDbLine
 10
160.5752137176952
 20
95.2253067566
 30
0.0
 11
128.0126585353952
 21
85.8253067566
 31
0.0
  0
LINE
  5
C60
330
1F
100
AcDbEntity
  8
0
  6
Continuous
 62
     8
370
     0
100
AcDbLine
 10
129.7054788583952
 20
83.4272305452
 30
0.0
 11
160.8823933946952
 21
92.4272305452
 31
0.0
  0
LINE
  5
C61
330
1F
100
AcDbEntity
  8
0
  6
Continuous
 62
     8
370
     0
100
AcDbLine
 10
129.7054788583952
 20
12.8461601368
 30
0.0
 11
129.7054788583952
 21
83.4272305452
 31
0.0
  0
LINE
  5
C62
330
1F
100
AcDbEntity
  8
0
  6
Continuous
 62
     8
370
     0
100
AcDbLine
 10
126.9734280508952
 20
84.486076272
 30
0.0
 11
126.9734280508952
 21
12.5193652176
 31
0.0
  0
LINE
  5
C63
330
1F
100
AcDbEntity
  8
0
  6
Continuous
 62
     8
370
     0
100
AcDbLine
 10
160.8823933946952
 20
21.8461601368
 30
0.0
 11
129.7054788583952
 21
12.8461601368
 31
0.0
  0
LINE
  5
C64
330
1F
100
AcDbEntity
  8
0
  6
Continuous
 62
     8
370
     0
100
AcDbLine
 10
160.8823933946952
 20
92.4272305452
 30
0.0
 11
160.8823933946952
 21
21.8461601368
 31
0.0
  0
LINE
  5
C65
330
1F
100
AcDbEntity
  8
0
  6
Continuous
 62
     8
370
     0
100
AcDbLine
 10
121.7054788583952
 20
91.0049528283
 30
0.0
 11
121.9554788583952
 21
90.7884464774
 31
0.0
  0
LINE
  5
C66
330
1F
100
AcDbEntity
  8
0
  6
Continuous
 62
     8
370
     0
100
AcDbLine
 10
119.9734280508952
 20
88.7729020208
 30
0.0
 11
120.2234280508952
 21
88.5563956698
 31
0.0
  0
LINE
  5
C67
330
1F
100
AcDbEntity
  8
0
  6
Continuous
 62
     8
370
     0
100
AcDbLine
 10
152.8823933946952
 20
100.0049528283
 30
0.0
 11
153.1323933946952
 21
99.7884464774
 31
0.0
  0
LINE
  5
C68
330
1F
100
AcDbEntity
  8
0
  6
Continuous
 62
     8
370
     0
100
AcDbLine
 10
119.9734280508952
 20
20.3568951218
 30
0.0
 11
120.2234280508952
 21
20.1403887709
 31
0.0
  0
LINE
  5
C69
330
1F
100
AcDbEntity
  8
0
  6
Continuous
 62
     8
370
     0
100
AcDbLine
 10
114.6859326770952
 20
-1.4922027924
 30
0.0
 11
114.6859326770952
 21
-73.025901145
 31
0.0
  0
LINE
  5
C6A
330
1F
100
AcDbEntity
  8
0
  6
Continuous
 62
     8
370
     0
100
AcDbLine
 10
114.0859326770952
 20
0.0666429344
 30
0.0
 11
101.9359326770952
 21
10.5888515904
 31
0.0
  0
LINE
  5
C6B
330
1F
100
AcDbEntity
  8
0
  6
Continuous
 62
     8
370
     0
100
AcDbLine
 10
114.7962225450952
 20
-0.847524241
 30
0.0
 11
114.5808043363952
 21
-0.6609665998
 31
0.0
  0
LWPOLYLINE
  5
C6C
330
1F
100
AcDbEntity
  8
0
  6
Continuous
 62
     8
370
     0
100
AcDbPolyline
 90
        3
 70
   128
 43
0.0
 10
128.2439175163952
 20
84.7590052004
 10
128.1004123588952
 20
84.5844987136
 10
128.0661759443952
 20
84.5397288363
  0
LINE
  5
C6D
330
1F
100
AcDbEntity
  8
0
  6
Continuous
 62
     8
370
     0
100
AcDbLine
 10
104.9423502848952
 20
94.9026301033
 30
0.0
 11
104.9423502848952
 21
21.2904707816
 31
0.0
  0
LINE
  5
C6E
330
1F
100
AcDbEntity
  8
0
  6
Continuous
 62
     8
370
     0
100
AcDbLine
 10
117.0327237943952
 20
92.5487534639
 30
0.0
 11
117.0327237943952
 21
18.9365941423
 31
0.0
  0
LINE
  5
C6F
330
1F
100
AcDbEntity
  8
0
  6
Continuous
 62
     8
370
     0
100
AcDbLine
 10
118.8427805378952
 20
91.3030887755
 30
0.0
 11
118.8427805378952
 21
17.6909294539
 31
0.0
  0
LINE
  5
C70
330
1F
100
AcDbEntity
  8
0
  6
Continuous
 62
     8
370
     0
100
AcDbLine
 10
119.4972890350952
 20
91.2335287377
 30
0.0
 11
119.4972890350952
 21
17.621369416
 31
0.0
  0
LINE
  5
C71
330
1F
100
AcDbEntity
  8
0
  6
Continuous
 62
     8
370
     0
100
AcDbLine
 10
113.2199072732952
 20
-1.0493824693
 30
0.0
 11
113.2199072732952
 21
-1.3380576039
 31
0.0
  0
LINE
  5
C72
330
1F
100
AcDbEntity
  8
0
  6
Continuous
 62
     8
370
     0
100
AcDbLine
 10
102.7077171749952
 20
10.7910499123
 30
0.0
 11
102.7077171749952
 21
10.6768456474
 31
0.0
  0
LINE
  5
C73
330
1F
100
AcDbEntity
  8
0
  6
Continuous
 62
     8
370
     0
100
AcDbLine
 10
103.7341659871952
 20
11.1118361957
 30
0.0
 11
103.7341659871952
 21
9.9452363654
 31
0.0
  0
LINE
  5
C74
330
1F
100
AcDbEntity
  8
0
  6
Continuous
 62
     8
370
     0
100
AcDbLine
 10
103.9577161667952
 20
11.0379357273
 30
0.0
 11
103.9577161667952
 21
9.7516362308
 31
0.0
  0
LINE
  5
C75
330
1F
100
AcDbEntity
  8
0
  6
Continuous
 62
     8
370
     0
100
AcDbLine
 10
109.9214756385952
 20
12.7208741989
 30
0.0
 11
109.9214756385952
 21
4.5868690263
 31
0.0
  0
LINE
  5
C76
330
1F
100
AcDbEntity
  8
0
  6
Continuous
 62
     8
370
     0
100
AcDbLine
 10
113.9036480297952
 20
20.427727598
 30
0.0
 11
113.9036480297952
 21
1.1382065732
 31
0.0
  0
ARC
  5
C77
330
1F
100
AcDbEntity
  8
0
  6
Continuous
 62
     8
370
     0
100
AcDbCircle
 10
102.9667858430952
 20
10.573706756
 30
0.0
 40
5.768159587061017
100
AcDbArc
 50
53.48520160349994
 51
126.6933657924001
  0
LINE
  5
C78
330
1F
100
AcDbEntity
  8
0
  6
Continuous
 62
     8
370
     0
100
AcDbLine
 10
88.65354131489516
 20
18.0917399331
 30
0.0
 11
88.65354131489516
 21
-55.5204193886
 31
0.0
  0
LINE
  5
C79
330
1F
100
AcDbEntity
  8
0
  6
Continuous
 62
     8
370
     0
100
AcDbLine
 10
88.81829790589518
 20
22.604146475
 30
0.0
 11
88.81829790589518
 21
19.3344743442
 31
0.0
  0
LINE
  5
C7A
330
1F
100
AcDbEntity
  8
0
100
AcDbLine
 10
263.3074465310952
 20
417.9182247749446
 30
0.0
 11
263.3074465310952
 21
410.9182247749446
 31
0.0
  0
LINE
  5
C7B
330
1F
100
AcDbEntity
  8
0
100
AcDbLine
 10
244.3074465310952
 20
410.9182247749446
 30
0.0
 11
244.3074465310952
 21
417.9182247749446
 31
0.0
  0
LINE
  5
C7C
330
1F
100
AcDbEntity
  8
0
100
AcDbLine
 10
256.8074465310952
 20
418.9182247749446
 30
0.0
 11
256.8074465310952
 21
418.4182247749446
 31
0.0
  0
LINE
  5
C7D
330
1F
100
AcDbEntity
  8
0
100
AcDbLine
 10
250.8074465310952
 20
418.4182247749446
 30
0.0
 11
250.8074465310952
 21
418.9182247749446
 31
0.0
  0
LINE
  5
C7E
330
1F
100
AcDbEntity
  8
0
100
AcDbLine
 10
261.7074465310952
 20
418.4182247749446
 30
0.0
 11
261.7074465310952
 21
417.9182247749446
 31
0.0
  0
LINE
  5
C7F
330
1F
100
AcDbEntity
  8
0
100
AcDbLine
 10
245.9074465310952
 20
417.9182247749446
 30
0.0
 11
245.9074465310952
 21
418.4182247749446
 31
0.0
  0
CIRCLE
  5
C80
330
1F
100
AcDbEntity
  8
0
100
AcDbCircle
 10
220.8074465310952
 20
398.9182247749446
 30
0.0
 40
2.899999999999977
  0
CIRCLE
  5
C81
330
1F
100
AcDbEntity
  8
0
100
AcDbCircle
 10
220.8074465310952
 20
398.9182247749446
 30
0.0
 40
2.599999999999966
  0
LINE
  5
C82
330
1F
100
AcDbEntity
  8
0
100
AcDbLine
 10
222.0574465310952
 20
398.1965369384446
 30
0.0
 11
222.0574465310952
 21
399.6399126114446
 31
0.0
  0
LINE
  5
C83
330
1F
100
AcDbEntity
  8
0
100
AcDbLine
 10
220.8074465310952
 20
397.4748491020446
 30
0.0
 11
222.0574465310952
 21
398.1965369384446
 31
0.0
  0
LINE
  5
C84
330
1F
100
AcDbEntity
  8
0
100
AcDbLine
 10
219.5574465310952
 20
398.1965369384446
 30
0.0
 11
220.8074465310952
 21
397.4748491020446
 31
0.0
  0
LINE
  5
C85
330
1F
100
AcDbEntity
  8
0
100
AcDbLine
 10
219.5574465310952
 20
399.6399126114446
 30
0.0
 11
219.5574465310952
 21
398.1965369384446
 31
0.0
  0
LINE
  5
C86
330
1F
100
AcDbEntity
  8
0
100
AcDbLine
 10
220.8074465310952
 20
400.3616004479446
 30
0.0
 11
219.5574465310952
 21
399.6399126114446
 31
0.0
  0
LINE
  5
C87
330
1F
100
AcDbEntity
  8
0
100
AcDbLine
 10
222.0574465310952
 20
399.6399126114446
 30
0.0
 11
220.8074465310952
 21
400.3616004479446
 31
0.0
  0
ARC
  5
C88
330
1F
100
AcDbEntity
  8
0
100
AcDbCircle
 10
220.8074465310952
 20
398.9182247749446
 30
0.0
 40
3.449999999999989
100
AcDbArc
 50
300.6242706953
 51
270.0
  0
LWPOLYLINE
  5
C89
330
1F
100
AcDbEntity
  8
0
100
AcDbPolyline
 90
        3
 70
   128
 43
0.0
 10
222.2093056662952
 20
395.7658778770446
 10
221.5751437531952
 20
395.5547234779446
 10
220.8074465310952
 20
395.4682247749446
  0
ARC
  5
C8A
330
1F
100
AcDbEntity
  8
0
100
AcDbCircle
 10
220.8074465310952
 20
398.9182247749446
 30
0.0
 40
1.250000000000004
100
AcDbArc
 50
240.0000000000001
 51
299.9999999999998
  0
ARC
  5
C8B
330
1F
100
AcDbEntity
  8
0
100
AcDbCircle
 10
220.8074465310952
 20
398.9182247749446
 30
0.0
 40
1.249999999999976
100
AcDbArc
 50
299.9999999999998
 51
0.0
  0
ARC
  5
C8C
330
1F
100
AcDbEntity
  8
0
100
AcDbCircle
 10
220.8074465310952
 20
398.9182247749446
 30
0.0
 40
1.250000000000004
100
AcDbArc
 50
180.0
 51
240.0000000000001
  0
ARC
  5
C8D
330
1F
100
AcDbEntity
  8
0
100
AcDbCircle
 10
220.8074465310952
 20
398.9182247749446
 30
0.0
 40
1.249999999999976
100
AcDbArc
 50
0.0
 51
60.00000000000011
  0
ARC
  5
C8E
330
1F
100
AcDbEntity
  8
0
100
AcDbCircle
 10
220.8074465310952
 20
398.9182247749446
 30
0.0
 40
1.250000000000004
100
AcDbArc
 50
119.9999999999999
 51
180.0
  0
ARC
  5
C8F
330
1F
100
AcDbEntity
  8
0
100
AcDbCircle
 10
220.8074465310952
 20
398.9182247749446
 30
0.0
 40
1.250000000000004
100
AcDbArc
 50
60.00000000000011
 51
119.9999999999999
  0
LINE
  5
C90
330
1F
100
AcDbEntity
  8
0
100
AcDbLine
 10
262.5828627338952
 20
417.9182247749446
 30
0.0
 11
244.3074465310952
 21
417.9182247749446
 31
0.0
  0
LINE
  5
C91
330
1F
100
AcDbEntity
  8
0
100
AcDbLine
 10
263.3074465310952
 20
417.9182247749446
 30
0.0
 11
262.5828627338952
 21
417.9182247749446
 31
0.0
  0
LINE
  5
C92
330
1F
100
AcDbEntity
  8
0
100
AcDbLine
 10
235.0074465310952
 20
419.2182247749446
 30
0.0
 11
272.6074465310951
 21
419.2182247749446
 31
0.0
  0
LINE
  5
C93
330
1F
100
AcDbEntity
  8
0
100
AcDbLine
 10
235.0074465310952
 20
424.4182247749446
 30
0.0
 11
235.0074465310952
 21
419.2182247749446
 31
0.0
  0
LINE
  5
C94
330
1F
100
AcDbEntity
  8
0
100
AcDbLine
 10
272.6074465310951
 20
424.4182247749446
 30
0.0
 11
272.6074465310951
 21
419.2182247749446
 31
0.0
  0
ARC
  5
C95
330
1F
100
AcDbEntity
  8
0
100
AcDbCircle
 10
271.8074465310952
 20
424.4182247749446
 30
0.0
 40
2.000000000000013
100
AcDbArc
 50
66.42182152179947
 51
90.0
  0
LINE
  5
C96
330
1F
100
AcDbEntity
  8
0
100
AcDbLine
 10
271.8074465310952
 20
426.4182247749446
 30
0.0
 11
235.8074465310952
 21
426.4182247749446
 31
0.0
  0
ARC
  5
C97
330
1F
100
AcDbEntity
  8
0
100
AcDbCircle
 10
235.8074465310952
 20
424.4182247749446
 30
0.0
 40
2.000000000000013
100
AcDbArc
 50
90.0
 51
113.5781784782005
  0
LINE
  5
C98
330
1F
100
AcDbEntity
  8
0
100
AcDbLine
 10
235.0074465310952
 20
426.2512550529446
 30
0.0
 11
235.0074465310952
 21
424.4182247749446
 31
0.0
  0
LINE
  5
C99
330
1F
100
AcDbEntity
  8
0
100
AcDbLine
 10
272.6074465310951
 20
424.4182247749446
 30
0.0
 11
272.6074465310951
 21
426.2512550529446
 31
0.0
  0
ARC
  5
C9A
330
1F
100
AcDbEntity
  8
0
100
AcDbCircle
 10
272.3074465310952
 20
424.9182247749446
 30
0.0
 40
0.5
100
AcDbArc
 50
0.0
 51
53.13010235420028
  0
LINE
  5
C9B
330
1F
100
AcDbEntity
  8
0
100
AcDbLine
 10
273.8074465310952
 20
424.4182247749446
 30
0.0
 11
273.8074465310952
 21
419.2182247749446
 31
0.0
  0
ARC
  5
C9C
330
1F
100
AcDbEntity
  8
0
100
AcDbCircle
 10
271.8074465310952
 20
424.4182247749446
 30
0.0
 40
2.000000000000013
100
AcDbArc
 50
0.0
 51
66.42182152179947
  0
LINE
  5
C9D
330
1F
100
AcDbEntity
  8
0
100
AcDbLine
 10
273.8074465310952
 20
419.2182247749446
 30
0.0
 11
272.8074465310952
 21
419.2182247749446
 31
0.0
  0
LINE
  5
C9E
330
1F
100
AcDbEntity
  8
0
100
AcDbLine
 10
272.8074465310952
 20
419.2182247749446
 30
0.0
 11
272.8074465310952
 21
424.9182247749446
 31
0.0
  0
LINE
  5
C9F
330
1F
100
AcDbEntity
  8
0
100
AcDbLine
 10
233.8074465310952
 20
424.4182247749446
 30
0.0
 11
233.8074465310952
 21
419.2182247749446
 31
0.0
  0
ARC
  5
CA0
330
1F
100
AcDbEntity
  8
0
100
AcDbCircle
 10
235.3074465310952
 20
424.9182247749446
 30
0.0
 40
0.5000000000000341
100
AcDbArc
 50
126.869897645801
 51
180.0
  0
ARC
  5
CA1
330
1F
100
AcDbEntity
  8
0
100
AcDbCircle
 10
235.8074465310952
 20
424.4182247749446
 30
0.0
 40
2.000000000000013
100
AcDbArc
 50
113.5781784782005
 51
180.0
  0
LINE
  5
CA2
330
1F
100
AcDbEntity
  8
0
100
AcDbLine
 10
234.8074465310952
 20
424.9182247749446
 30
0.0
 11
234.8074465310952
 21
419.2182247749446
 31
0.0
  0
LINE
  5
CA3
330
1F
100
AcDbEntity
  8
0
100
AcDbLine
 10
234.8074465310952
 20
419.2182247749446
 30
0.0
 11
233.8074465310952
 21
419.2182247749446
 31
0.0
  0
LINE
  5
CA4
330
1F
100
AcDbEntity
  8
0
100
AcDbLine
 10
235.3074465310952
 20
418.9182247749446
 30
0.0
 11
235.3074465310952
 21
419.2182247749446
 31
0.0
  0
LINE
  5
CA5
330
1F
100
AcDbEntity
  8
0
100
AcDbLine
 10
235.3074465310952
 20
418.9182247749446
 30
0.0
 11
237.3074465310952
 21
418.9182247749446
 31
0.0
  0
LINE
  5
CA6
330
1F
100
AcDbEntity
  8
0
100
AcDbLine
 10
237.3074465310952
 20
418.9182247749446
 30
0.0
 11
270.3074465310952
 21
418.9182247749446
 31
0.0
  0
LINE
  5
CA7
330
1F
100
AcDbEntity
  8
0
100
AcDbLine
 10
272.3074465310952
 20
418.9182247749446
 30
0.0
 11
272.3074465310952
 21
419.2182247749446
 31
0.0
  0
LINE
  5
CA8
330
1F
100
AcDbEntity
  8
0
100
AcDbLine
 10
270.3074465310952
 20
418.9182247749446
 30
0.0
 11
272.3074465310952
 21
418.9182247749446
 31
0.0
  0
LINE
  5
CA9
330
1F
100
AcDbEntity
  8
0
100
AcDbLine
 10
233.8074465310952
 20
410.4182247749446
 30
0.0
 11
233.8074465310952
 21
410.9182247749446
 31
0.0
  0
LINE
  5
CAA
330
1F
100
AcDbEntity
  8
0
100
AcDbLine
 10
233.8074465310952
 20
410.9182247749446
 30
0.0
 11
235.8074465310952
 21
410.9182247749446
 31
0.0
  0
LINE
  5
CAB
330
1F
100
AcDbEntity
  8
0
100
AcDbLine
 10
235.8074465310952
 20
410.9182247749446
 30
0.0
 11
271.8074465310952
 21
410.9182247749446
 31
0.0
  0
LINE
  5
CAC
330
1F
100
AcDbEntity
  8
0
100
AcDbLine
 10
273.8074465310952
 20
410.4182247749446
 30
0.0
 11
273.8074465310952
 21
410.9182247749446
 31
0.0
  0
LINE
  5
CAD
330
1F
100
AcDbEntity
  8
0
100
AcDbLine
 10
271.8074465310952
 20
410.9182247749446
 30
0.0
 11
273.8074465310952
 21
410.9182247749446
 31
0.0
  0
CIRCLE
  5
CAE
330
1F
100
AcDbEntity
  8
0
100
AcDbCircle
 10
228.8074465310952
 20
383.4182247749446
 30
0.0
 40
13.99999999999999
  0
LINE
  5
CAF
330
1F
100
AcDbEntity
  8
0
100
AcDbLine
 10
230.3210311322952
 20
380.3022880530446
 30
0.0
 11
226.8657584739952
 21
380.5494536985446
 31
0.0
  0
LINE
  5
CB0
330
1F
100
AcDbEntity
  8
0
100
AcDbLine
 10
226.8657584739952
 20
380.5494536985446
 30
0.0
 11
225.3521738726952
 21
383.6653904204446
 31
0.0
  0
LINE
  5
CB1
330
1F
100
AcDbEntity
  8
0
100
AcDbLine
 10
225.3521738726952
 20
383.6653904204446
 30
0.0
 11
227.2938619297952
 21
386.5341614968446
 31
0.0
  0
LINE
  5
CB2
330
1F
100
AcDbEntity
  8
0
100
AcDbLine
 10
227.2938619297952
 20
386.5341614968446
 30
0.0
 11
230.7491345880952
 21
386.2869958514446
 31
0.0
  0
LINE
  5
CB3
330
1F
100
AcDbEntity
  8
0
100
AcDbLine
 10
230.7491345880952
 20
386.2869958514446
 30
0.0
 11
232.2627191893952
 21
383.1710591295446
 31
0.0
  0
LINE
  5
CB4
330
1F
100
AcDbEntity
  8
0
100
AcDbLine
 10
232.2627191893952
 20
383.1710591295446
 30
0.0
 11
230.3210311322952
 21
380.3022880530446
 31
0.0
  0
ARC
  5
CB5
330
1F
100
AcDbEntity
  8
0
100
AcDbCircle
 10
228.8074465310952
 20
383.4182247749446
 30
0.0
 40
3.000000000000022
100
AcDbArc
 50
265.9084364837997
 51
325.9084364838004
  0
ARC
  5
CB6
330
1F
100
AcDbEntity
  8
0
100
AcDbCircle
 10
228.8074465310952
 20
383.4182247749446
 30
0.0
 40
3.000000000000027
100
AcDbArc
 50
205.9084364838001
 51
265.9084364837997
  0
ARC
  5
CB7
330
1F
100
AcDbEntity
  8
0
100
AcDbCircle
 10
228.8074465310952
 20
383.4182247749446
 30
0.0
 40
3.000000000000007
100
AcDbArc
 50
325.9084364837997
 51
25.90843648380015
  0
ARC
  5
CB8
330
1F
100
AcDbEntity
  8
0
100
AcDbCircle
 10
228.8074465310952
 20
383.4182247749446
 30
0.0
 40
3.000000000000027
100
AcDbArc
 50
145.9084364838003
 51
205.9084364838001
  0
ARC
  5
CB9
330
1F
100
AcDbEntity
  8
0
100
AcDbCircle
 10
228.8074465310952
 20
383.4182247749446
 30
0.0
 40
3.000000000000022
100
AcDbArc
 50
25.90843648380015
 51
85.90843648379973
  0
ARC
  5
CBA
330
1F
100
AcDbEntity
  8
0
100
AcDbCircle
 10
228.8074465310952
 20
383.4182247749446
 30
0.0
 40
3.000000000000022
100
AcDbArc
 50
85.90843648379973
 51
145.9084364838003
  0
LINE
  5
CBB
330
1F
100
AcDbEntity
  8
0
100
AcDbLine
 10
214.3074465310952
 20
432.4182247749446
 30
0.0
 11
210.6074465310951
 21
432.4182247749446
 31
0.0
  0
LINE
  5
CBC
330
1F
100
AcDbEntity
  8
0
100
AcDbLine
 10
210.6074465310951
 20
432.4182247749446
 30
0.0
 11
210.6074465310951
 21
408.1182247749446
 31
0.0
  0
LINE
  5
CBD
330
1F
100
AcDbEntity
  8
0
100
AcDbLine
 10
214.3074465310952
 20
408.1182247749446
 30
0.0
 11
210.6074465310951
 21
408.1182247749446
 31
0.0
  0
LINE
  5
CBE
330
1F
100
AcDbEntity
  8
0
100
AcDbLine
 10
216.3074465310952
 20
431.6182247749446
 30
0.0
 11
216.3074465310952
 21
408.1182247749446
 31
0.0
  0
ARC
  5
CBF
330
1F
100
AcDbEntity
  8
0
100
AcDbCircle
 10
214.3074465310952
 20
431.6182247749446
 30
0.0
 40
2.000000000000013
100
AcDbArc
 50
0.0
 51
23.57817847820053
  0
LINE
  5
CC0
330
1F
100
AcDbEntity
  8
0
100
AcDbLine
 10
214.3074465310952
 20
432.4182247749446
 30
0.0
 11
216.1404768089952
 21
432.4182247749446
 31
0.0
  0
LINE
  5
CC1
330
1F
100
AcDbEntity
  8
0
100
AcDbLine
 10
216.3074465310952
 20
408.1182247749446
 30
0.0
 11
214.3074465310952
 21
408.1182247749446
 31
0.0
  0
LINE
  5
CC2
330
1F
100
AcDbEntity
  8
0
100
AcDbLine
 10
214.3074465310952
 20
433.6182247749446
 30
0.0
 11
210.6074465310951
 21
433.6182247749446
 31
0.0
  0
LINE
  5
CC3
330
1F
100
AcDbEntity
  8
0
100
AcDbLine
 10
210.6074465310951
 20
432.6182247749446
 30
0.0
 11
210.6074465310951
 21
433.6182247749446
 31
0.0
  0
LINE
  5
CC4
330
1F
100
AcDbEntity
  8
0
100
AcDbLine
 10
210.6074465310951
 20
432.6182247749446
 30
0.0
 11
214.8074465310952
 21
432.6182247749446
 31
0.0
  0
ARC
  5
CC5
330
1F
100
AcDbEntity
  8
0
100
AcDbCircle
 10
214.3074465310952
 20
431.6182247749446
 30
0.0
 40
2.000000000000013
100
AcDbArc
 50
23.57817847820053
 51
90.0
  0
ARC
  5
CC6
330
1F
100
AcDbEntity
  8
0
100
AcDbCircle
 10
214.8074465310952
 20
432.1182247749446
 30
0.0
 40
0.5000000000000341
100
AcDbArc
 50
36.86989764580103
 51
90.0
  0
LINE
  5
CC7
330
1F
100
AcDbEntity
  8
0
100
AcDbLine
 10
235.0074465310952
 20
420.4182247749446
 30
0.0
 11
234.8074465310952
 21
420.4182247749446
 31
0.0
  0
LINE
  5
CC8
330
1F
100
AcDbEntity
  8
0
100
AcDbLine
 10
235.0074465310952
 20
420.2182247749446
 30
0.0
 11
234.8074465310952
 21
420.4182247749446
 31
0.0
  0
LINE
  5
CC9
330
1F
100
AcDbEntity
  8
0
100
AcDbLine
 10
272.8074465310952
 20
420.4182247749446
 30
0.0
 11
272.6074465310951
 21
420.4182247749446
 31
0.0
  0
LINE
  5
CCA
330
1F
100
AcDbEntity
  8
0
100
AcDbLine
 10
272.6074465310951
 20
420.2182247749446
 30
0.0
 11
272.8074465310952
 21
420.4182247749446
 31
0.0
  0
ARC
  5
CCB
330
1F
100
AcDbEntity
  8
0
100
AcDbCircle
 10
236.8074465310952
 20
423.4182247749446
 30
0.0
 40
2.000000000000048
100
AcDbArc
 50
154.1580672367997
 51
180.0
  0
ARC
  5
CCC
330
1F
100
AcDbEntity
  8
0
100
AcDbCircle
 10
270.8074465310952
 20
423.4182247749446
 30
0.0
 40
2.0
100
AcDbArc
 50
0.0
 51
25.84193276309972
  0
LINE
  5
CCD
330
1F
100
AcDbEntity
  8
0
100
AcDbLine
 10
232.7603876054952
 20
409.9704890066446
 30
0.0
 11
232.4384971716952
 21
406.9079061053446
 31
0.0
  0
ARC
  5
CCE
330
1F
100
AcDbEntity
  8
0
100
AcDbCircle
 10
220.5042344272952
 20
408.1622476645446
 30
0.0
 40
12.00000000000002
100
AcDbArc
 50
318.4608777148001
 51
353.9999999999999
  0
ARC
  5
CCF
330
1F
100
AcDbEntity
  8
0
100
AcDbCircle
 10
247.2710381745952
 20
392.5536384832446
 30
0.0
 40
6.500000000000028
100
AcDbArc
 50
104.0000000000003
 51
206.3252793687004
  0
LINE
  5
CD0
330
1F
100
AcDbEntity
  8
0
100
AcDbLine
 10
245.6985458531952
 20
398.8605607040446
 30
0.0
 11
273.2912903222952
 21
405.7402045754446
 31
0.0
  0
ARC
  5
CD1
330
1F
100
AcDbEntity
  8
0
100
AcDbCircle
 10
272.8074465310952
 20
407.6807960279446
 30
0.0
 40
2.000000000000002
100
AcDbArc
 50
283.9999999999997
 51
0.0
  0
LINE
  5
CD2
330
1F
100
AcDbEntity
  8
0
100
AcDbLine
 10
274.8074465310952
 20
407.6807960279446
 30
0.0
 11
274.8074465310952
 21
410.4182247749446
 31
0.0
  0
LINE
  5
CD3
330
1F
100
AcDbEntity
  8
0
100
AcDbLine
 10
274.8074465310952
 20
410.4182247749446
 30
0.0
 11
233.2576485531952
 21
410.4182247749446
 31
0.0
  0
ARC
  5
CD4
330
1F
100
AcDbEntity
  8
0
100
AcDbCircle
 10
233.2576485531952
 20
409.9182247749446
 30
0.0
 40
0.5000000000000613
100
AcDbArc
 50
90.0
 51
173.999999999999
  0
LINE
  5
CD5
330
1F
100
AcDbEntity
  8
0
100
AcDbLine
 10
261.7074465310952
 20
418.4182247749446
 30
0.0
 11
245.9074465310952
 21
418.4182247749446
 31
0.0
  0
LINE
  5
CD6
330
1F
100
AcDbEntity
  8
0
100
AcDbLine
 10
210.3074465310952
 20
397.4182247749446
 30
0.0
 11
210.5074465310952
 21
397.4182247749446
 31
0.0
  0
LINE
  5
CD7
330
1F
100
AcDbEntity
  8
0
100
AcDbLine
 10
210.3074465310952
 20
388.4816452809446
 30
0.0
 11
210.3074465310952
 21
397.4182247749446
 31
0.0
  0
ARC
  5
CD8
330
1F
100
AcDbEntity
  8
0
100
AcDbCircle
 10
212.3074465310952
 20
388.4816452809446
 30
0.0
 40
2.0
100
AcDbArc
 50
180.0
 51
233.3446891940995
  0
ARC
  5
CD9
330
1F
100
AcDbEntity
  8
0
100
AcDbCircle
 10
205.1434513137952
 20
378.8547468952446
 30
0.0
 40
9.999999999999995
100
AcDbArc
 50
10.91519932390007
 51
53.34468919409985
  0
ARC
  5
CDA
330
1F
100
AcDbEntity
  8
0
100
AcDbCircle
 10
228.8074465310952
 20
383.4182247749446
 30
0.0
 40
14.10000000000004
100
AcDbArc
 50
190.9151993239001
 51
63.48117058880013
  0
ARC
  5
CDB
330
1F
100
AcDbEntity
  8
0
100
AcDbCircle
 10
244.0328201832952
 20
413.9304845593446
 30
0.0
 40
20.00000000000001
100
AcDbArc
 50
199.9662374701999
 51
243.4811705888
  0
ARC
  5
CDC
330
1F
100
AcDbEntity
  8
0
100
AcDbCircle
 10
223.3551522071952
 20
406.4182247749446
 30
0.0
 40
2.0
100
AcDbArc
 50
19.96623747019992
 51
90.0
  0
LINE
  5
CDD
330
1F
100
AcDbEntity
  8
0
100
AcDbLine
 10
223.3551522071952
 20
408.4182247749446
 30
0.0
 11
216.5074465310952
 21
408.4182247749446
 31
0.0
  0
LINE
  5
CDE
330
1F
100
AcDbEntity
  8
0
100
AcDbLine
 10
216.5074465310952
 20
408.3512799778446
 30
0.0
 11
216.5074465310952
 21
408.4182247749446
 31
0.0
  0
ARC
  5
CDF
330
1F
100
AcDbEntity
  8
0
100
AcDbCircle
 10
216.2074465310952
 20
408.3512799778446
 30
0.0
 40
0.3000000000000114
100
AcDbArc
 50
306.9416307552051
 51
0.0
  0
ARC
  5
CE0
330
1F
100
AcDbEntity
  8
0
100
AcDbCircle
 10
215.8091122727952
 20
408.8810093353446
 30
0.0
 40
0.9627845603671406
100
AcDbArc
 50
229.0442263869989
 51
306.9416307552022
  0
ARC
  5
CE1
330
1F
100
AcDbEntity
  8
0
100
AcDbCircle
 10
215.4074465310952
 20
408.4182247749446
 30
0.0
 40
0.3500000000000113
100
AcDbArc
 50
180.0
 51
229.0442263869949
  0
LINE
  5
CE2
330
1F
100
AcDbEntity
  8
0
100
AcDbLine
 10
210.5074465310952
 20
408.4182247749446
 30
0.0
 11
215.0574465310952
 21
408.4182247749446
 31
0.0
  0
LINE
  5
CE3
330
1F
100
AcDbEntity
  8
0
100
AcDbLine
 10
210.5074465310952
 20
397.4182247749446
 30
0.0
 11
210.5074465310952
 21
408.4182247749446
 31
0.0
  0
ARC
  5
CE4
330
1F
100
AcDbEntity
  8
0
100
AcDbCircle
 10
220.8074465310952
 20
398.9182247749446
 30
0.0
 40
3.933012701892267
100
AcDbArc
 50
90.0
 51
271.6826235822001
  0
ARC
  5
CE5
330
1F
100
AcDbEntity
  8
0
100
AcDbCircle
 10
220.8074465310952
 20
398.9182247749446
 30
0.0
 40
3.933012701892267
100
AcDbArc
 50
322.9165208405001
 51
90.0
  0
ARC
  5
CE6
330
1F
100
AcDbEntity
  8
0
100
AcDbCircle
 10
220.8074465310952
 20
398.9182247749446
 30
0.0
 40
3.500000000000057
100
AcDbArc
 50
90.0
 51
288.0157414391997
  0
ARC
  5
CE7
330
1F
100
AcDbEntity
  8
0
100
AcDbCircle
 10
220.8074465310952
 20
398.9182247749446
 30
0.0
 40
3.500000000000057
100
AcDbArc
 50
306.5834029834998
 51
90.0
  0
LINE
  5
CE8
330
1F
100
AcDbEntity
  8
0
100
AcDbLine
 10
210.6074465310951
 20
432.4182247749446
 30
0.0
 11
210.3074465310952
 21
432.4182247749446
 31
0.0
  0
LINE
  5
CE9
330
1F
100
AcDbEntity
  8
0
100
AcDbLine
 10
210.3074465310952
 20
424.4182247749446
 30
0.0
 11
210.3074465310952
 21
432.4182247749446
 31
0.0
  0
LINE
  5
CEA
330
1F
100
AcDbEntity
  8
0
100
AcDbLine
 10
210.3074465310952
 20
424.4182247749446
 30
0.0
 11
210.5074465310952
 21
424.4182247749446
 31
0.0
  0
LINE
  5
CEB
330
1F
100
AcDbEntity
  8
0
100
AcDbLine
 10
210.5074465310952
 20
424.4182247749446
 30
0.0
 11
210.5074465310952
 21
408.4182247749446
 31
0.0
  0
LINE
  5
CEC
330
1F
100
AcDbEntity
  8
0
100
AcDbLine
 10
219.5265776852952
 20
395.7148086296446
 30
0.0
 11
219.5265776852952
 21
395.6610212197446
 31
0.0
  0
LINE
  5
CED
330
1F
100
AcDbEntity
  8
0
100
AcDbLine
 10
222.0883153767952
 20
395.7004589582446
 30
0.0
 11
222.0883153767952
 21
395.7148086296446
 31
0.0
  0
LINE
  5
CEE
330
1F
100
AcDbEntity
  8
0
100
AcDbLine
 10
222.0883153767952
 20
402.1216409202446
 30
0.0
 11
222.0883153767952
 21
402.1754283301446
 31
0.0
  0
LINE
  5
CEF
330
1F
100
AcDbEntity
  8
0
100
AcDbLine
 10
219.5265776852952
 20
402.1754283301446
 30
0.0
 11
219.5265776852952
 21
402.1216409202446
 31
0.0
  0
LINE
  5
CF0
330
1F
100
AcDbEntity
  8
0
  6
Continuous
 62
     8
370
     0
100
AcDbLine
 10
235.0074465310952
 20
424.4182247749446
 30
0.0
 11
272.6074465310951
 21
424.4182247749446
 31
0.0
  0
LINE
  5
CF1
330
1F
100
AcDbEntity
  8
0
  6
Continuous
 62
     8
370
     0
100
AcDbLine
 10
237.3074465310952
 20
418.9182247749446
 30
0.0
 11
237.3074465310952
 21
419.2182247749446
 31
0.0
  0
LINE
  5
CF2
330
1F
100
AcDbEntity
  8
0
  6
Continuous
 62
     8
370
     0
100
AcDbLine
 10
270.3074465310952
 20
418.9182247749446
 30
0.0
 11
270.3074465310952
 21
419.2182247749446
 31
0.0
  0
LINE
  5
CF3
330
1F
100
AcDbEntity
  8
0
  6
Continuous
 62
     8
370
     0
100
AcDbLine
 10
235.8074465310952
 20
410.4182247749446
 30
0.0
 11
235.8074465310952
 21
410.9182247749446
 31
0.0
  0
LINE
  5
CF4
330
1F
100
AcDbEntity
  8
0
  6
Continuous
 62
     8
370
     0
100
AcDbLine
 10
271.8074465310952
 20
410.4182247749446
 30
0.0
 11
271.8074465310952
 21
410.9182247749446
 31
0.0
  0
LINE
  5
CF5
330
1F
100
AcDbEntity
  8
0
  6
Continuous
 62
     8
370
     0
100
AcDbLine
 10
214.3074465310952
 20
432.4182247749446
 30
0.0
 11
214.3074465310952
 21
408.1182247749446
 31
0.0
  0
LINE
  5
CF6
330
1F
100
AcDbEntity
  8
0
  6
Continuous
 62
     8
370
     0
100
AcDbLine
 10
234.8074465310952
 20
423.4182247749446
 30
0.0
 11
235.0074465310952
 21
423.4182247749446
 31
0.0
  0
LINE
  5
CF7
330
1F
100
AcDbEntity
  8
0
  6
Continuous
 62
     8
370
     0
100
AcDbLine
 10
272.6074465310951
 20
423.4182247749446
 30
0.0
 11
272.8074465310952
 21
423.4182247749446
 31
0.0
  0
LINE
  5
CF8
330
1F
100
AcDbEntity
  8
0
100
AcDbLine
 10
366.0220193285951
 20
259.5412917826
 30
0.0
 11
359.0220193285951
 21
259.5412917826
 31
0.0
  0
LINE
  5
CF9
330
1F
100
AcDbEntity
  8
0
100
AcDbLine
 10
359.0220193285951
 20
278.5412917826
 30
0.0
 11
366.0220193285951
 21
278.5412917826
 31
0.0
  0
LINE
  5
CFA
330
1F
100
AcDbEntity
  8
0
100
AcDbLine
 10
366.0220193285951
 20
304.5412917826
 30
0.0
 11
359.0220193285951
 21
304.5412917826
 31
0.0
  0
LINE
  5
CFB
330
1F
100
AcDbEntity
  8
0
100
AcDbLine
 10
359.0220193285951
 20
323.5412917826
 30
0.0
 11
366.0220193285951
 21
323.5412917826
 31
0.0
  0
LINE
  5
CFC
330
1F
100
AcDbEntity
  8
0
100
AcDbLine
 10
367.0220193285951
 20
311.0412917826
 30
0.0
 11
366.5220193285951
 21
311.0412917826
 31
0.0
  0
LINE
  5
CFD
330
1F
100
AcDbEntity
  8
0
100
AcDbLine
 10
366.5220193285951
 20
317.0412917826
 30
0.0
 11
367.0220193285951
 21
317.0412917826
 31
0.0
  0
LINE
  5
CFE
330
1F
100
AcDbEntity
  8
0
100
AcDbLine
 10
367.0220193285951
 20
266.0412917826
 30
0.0
 11
366.5220193285951
 21
266.0412917826
 31
0.0
  0
LINE
  5
CFF
330
1F
100
AcDbEntity
  8
0
100
AcDbLine
 10
366.5220193285951
 20
272.0412917826
 30
0.0
 11
367.0220193285951
 21
272.0412917826
 31
0.0
  0
LINE
  5
D00
330
1F
100
AcDbEntity
  8
0
100
AcDbLine
 10
345.5220193285951
 20
336.0412917826
 30
0.0
 11
345.5220193285951
 21
334.0412917826
 31
0.0
  0
LINE
  5
D01
330
1F
100
AcDbEntity
  8
0
100
AcDbLine
 10
317.5220193285951
 20
334.0412917826
 30
0.0
 11
317.5220193285951
 21
336.0412917826
 31
0.0
  0
ARC
  5
D02
330
1F
100
AcDbEntity
  8
0
100
AcDbCircle
 10
331.5220193285951
 20
304.874625116
 30
0.0
 40
34.16666666666669
100
AcDbArc
 50
65.81048584599996
 51
114.1895141540001
  0
ARC
  5
D03
330
1F
100
AcDbEntity
  8
0
100
AcDbCircle
 10
331.5220193285951
 20
189.4079584493
 30
0.0
 40
34.16666666666683
100
AcDbArc
 50
245.8104858460001
 51
264.9497592902999
  0
ARC
  5
D04
330
1F
100
AcDbEntity
  8
0
100
AcDbCircle
 10
331.5220193285951
 20
189.4079584493
 30
0.0
 40
34.16666666666683
100
AcDbArc
 50
275.0502407097001
 51
294.1895141540001
  0
LINE
  5
D05
330
1F
100
AcDbEntity
  8
0
100
AcDbLine
 10
317.5220193285951
 20
158.2412917826
 30
0.0
 11
317.5220193285951
 21
160.2412917826
 31
0.0
  0
LINE
  5
D06
330
1F
100
AcDbEntity
  8
0
100
AcDbLine
 10
345.5220193285951
 20
160.2412917826
 30
0.0
 11
345.5220193285951
 21
158.2412917826
 31
0.0
  0
LINE
  5
D07
330
1F
100
AcDbEntity
  8
0
100
AcDbLine
 10
345.5220193285951
 20
249.0412917826
 30
0.0
 11
345.5220193285951
 21
245.2412917826
 31
0.0
  0
LINE
  5
D08
330
1F
100
AcDbEntity
  8
0
100
AcDbLine
 10
317.5220193285951
 20
245.2412917826
 30
0.0
 11
317.5220193285951
 21
249.0412917826
 31
0.0
  0
LINE
  5
D09
330
1F
100
AcDbEntity
  8
0
100
AcDbLine
 10
317.4220193285952
 20
249.0412917826
 30
0.0
 11
317.4220193285952
 21
334.0412917826
 31
0.0
  0
LINE
  5
D0A
330
1F
100
AcDbEntity
  8
0
100
AcDbLine
 10
366.5220193285951
 20
306.1412917826
 30
0.0
 11
366.0220193285951
 21
306.1412917826
 31
0.0
  0
LINE
  5
D0B
330
1F
100
AcDbEntity
  8
0
100
AcDbLine
 10
366.0220193285951
 20
321.9412917826
 30
0.0
 11
366.5220193285951
 21
321.9412917826
 31
0.0
  0
LINE
  5
D0C
330
1F
100
AcDbEntity
  8
0
100
AcDbLine
 10
366.5220193285951
 20
261.1412917826
 30
0.0
 11
366.0220193285951
 21
261.1412917826
 31
0.0
  0
LINE
  5
D0D
330
1F
100
AcDbEntity
  8
0
100
AcDbLine
 10
366.0220193285951
 20
276.9412917826
 30
0.0
 11
366.5220193285951
 21
276.9412917826
 31
0.0
  0
LINE
  5
D0E
330
1F
100
AcDbEntity
  8
0
100
AcDbLine
 10
317.4220193285952
 20
160.2412917826
 30
0.0
 11
317.4220193285952
 21
245.2412917826
 31
0.0
  0
LINE
  5
D0F
330
1F
100
AcDbEntity
  8
0
100
AcDbLine
 10
366.0220193285951
 20
259.5412917826
 30
0.0
 11
366.0220193285951
 21
278.5412917826
 31
0.0
  0
LINE
  5
D10
330
1F
100
AcDbEntity
  8
0
100
AcDbLine
 10
366.0220193285951
 20
304.5412917826
 30
0.0
 11
366.0220193285951
 21
323.5412917826
 31
0.0
  0
LINE
  5
D11
330
1F
100
AcDbEntity
  8
0
100
AcDbLine
 10
372.5220193285951
 20
333.0912917826
 30
0.0
 11
367.3220193285952
 21
333.0912917826
 31
0.0
  0
LINE
  5
D12
330
1F
100
AcDbEntity
  8
0
100
AcDbLine
 10
367.3220193285952
 20
333.0912917826
 30
0.0
 11
367.3220193285952
 21
249.9912917826
 31
0.0
  0
LINE
  5
D13
330
1F
100
AcDbEntity
  8
0
100
AcDbLine
 10
372.5220193285951
 20
249.9912917826
 30
0.0
 11
367.3220193285952
 21
249.9912917826
 31
0.0
  0
ARC
  5
D14
330
1F
100
AcDbEntity
  8
0
100
AcDbCircle
 10
372.5220193285951
 20
250.7912917826
 30
0.0
 40
2.000000000000013
100
AcDbArc
 50
336.4218215217994
 51
0.0
  0
LINE
  5
D15
330
1F
100
AcDbEntity
  8
0
100
AcDbLine
 10
374.5220193285951
 20
250.7912917826
 30
0.0
 11
374.5220193285951
 21
332.2912917826
 31
0.0
  0
ARC
  5
D16
330
1F
100
AcDbEntity
  8
0
100
AcDbCircle
 10
372.5220193285951
 20
332.2912917826
 30
0.0
 40
2.000000000000057
100
AcDbArc
 50
0.0
 51
23.57817847819988
  0
LINE
  5
D17
330
1F
100
AcDbEntity
  8
0
100
AcDbLine
 10
374.3550496065952
 20
333.0912917826
 30
0.0
 11
372.5220193285951
 21
333.0912917826
 31
0.0
  0
LINE
  5
D18
330
1F
100
AcDbEntity
  8
0
100
AcDbLine
 10
372.5220193285951
 20
249.9912917826
 30
0.0
 11
374.3550496065952
 21
249.9912917826
 31
0.0
  0
ARC
  5
D19
330
1F
100
AcDbEntity
  8
0
100
AcDbCircle
 10
373.0220193285951
 20
250.2912917826
 30
0.0
 40
0.5
100
AcDbArc
 50
270.0
 51
323.1301023541977
  0
LINE
  5
D1A
330
1F
100
AcDbEntity
  8
0
100
AcDbLine
 10
367.3220193285952
 20
249.7912917826
 30
0.0
 11
373.0220193285951
 21
249.7912917826
 31
0.0
  0
LINE
  5
D1B
330
1F
100
AcDbEntity
  8
0
100
AcDbLine
 10
367.3220193285952
 20
248.7912917826
 30
0.0
 11
367.3220193285952
 21
249.7912917826
 31
0.0
  0
LINE
  5
D1C
330
1F
100
AcDbEntity
  8
0
100
AcDbLine
 10
372.5220193285951
 20
248.7912917826
 30
0.0
 11
367.3220193285952
 21
248.7912917826
 31
0.0
  0
ARC
  5
D1D
330
1F
100
AcDbEntity
  8
0
100
AcDbCircle
 10
372.5220193285951
 20
250.7912917826
 30
0.0
 40
2.0
100
AcDbArc
 50
270.0
 51
336.4218215218002
  0
LINE
  5
D1E
330
1F
100
AcDbEntity
  8
0
100
AcDbLine
 10
372.5220193285951
 20
334.2912917826
 30
0.0
 11
367.3220193285952
 21
334.2912917826
 31
0.0
  0
LINE
  5
D1F
330
1F
100
AcDbEntity
  8
0
100
AcDbLine
 10
367.3220193285952
 20
333.2912917826
 30
0.0
 11
367.3220193285952
 21
334.2912917826
 31
0.0
  0
ARC
  5
D20
330
1F
100
AcDbEntity
  8
0
100
AcDbCircle
 10
373.0220193285951
 20
332.7912917826
 30
0.0
 40
0.5000000000000568
100
AcDbArc
 50
36.86989764589874
 51
90.0
  0
ARC
  5
D21
330
1F
100
AcDbEntity
  8
0
100
AcDbCircle
 10
372.5220193285951
 20
332.2912917826
 30
0.0
 40
2.0
100
AcDbArc
 50
23.57817847820053
 51
90.0
  0
LINE
  5
D22
330
1F
100
AcDbEntity
  8
0
100
AcDbLine
 10
373.0220193285951
 20
333.2912917826
 30
0.0
 11
367.3220193285952
 21
333.2912917826
 31
0.0
  0
LINE
  5
D23
330
1F
100
AcDbEntity
  8
0
100
AcDbLine
 10
367.0220193285951
 20
251.5412917826
 30
0.0
 11
367.3220193285952
 21
251.5412917826
 31
0.0
  0
LINE
  5
D24
330
1F
100
AcDbEntity
  8
0
100
AcDbLine
 10
367.0220193285951
 20
253.5412917826
 30
0.0
 11
367.0220193285951
 21
251.5412917826
 31
0.0
  0
LINE
  5
D25
330
1F
100
AcDbEntity
  8
0
100
AcDbLine
 10
367.0220193285951
 20
329.5412917826
 30
0.0
 11
367.0220193285951
 21
253.5412917826
 31
0.0
  0
LINE
  5
D26
330
1F
100
AcDbEntity
  8
0
100
AcDbLine
 10
367.0220193285951
 20
331.5412917826
 30
0.0
 11
367.3220193285952
 21
331.5412917826
 31
0.0
  0
LINE
  5
D27
330
1F
100
AcDbEntity
  8
0
100
AcDbLine
 10
367.0220193285951
 20
331.5412917826
 30
0.0
 11
367.0220193285951
 21
329.5412917826
 31
0.0
  0
LINE
  5
D28
330
1F
100
AcDbEntity
  8
0
100
AcDbLine
 10
359.0220193285951
 20
331.0412917826
 30
0.0
 11
359.0220193285951
 21
252.0412917826
 31
0.0
  0
LINE
  5
D29
330
1F
100
AcDbEntity
  8
0
100
AcDbLine
 10
358.5220193285951
 20
250.0412917826
 30
0.0
 11
359.0220193285951
 21
250.0412917826
 31
0.0
  0
LINE
  5
D2A
330
1F
100
AcDbEntity
  8
0
100
AcDbLine
 10
359.0220193285951
 20
252.0412917826
 30
0.0
 11
359.0220193285951
 21
250.0412917826
 31
0.0
  0
LINE
  5
D2B
330
1F
100
AcDbEntity
  8
0
100
AcDbLine
 10
358.5220193285951
 20
333.0412917826
 30
0.0
 11
359.0220193285951
 21
333.0412917826
 31
0.0
  0
LINE
  5
D2C
330
1F
100
AcDbEntity
  8
0
100
AcDbLine
 10
359.0220193285951
 20
333.0412917826
 30
0.0
 11
359.0220193285951
 21
331.0412917826
 31
0.0
  0
LINE
  5
D2D
330
1F
100
AcDbEntity
  8
0
100
AcDbLine
 10
345.5220193285951
 20
336.0412917826
 30
0.0
 11
317.5220193285951
 21
336.0412917826
 31
0.0
  0
LINE
  5
D2E
330
1F
100
AcDbEntity
  8
0
100
AcDbLine
 10
317.5220193285951
 20
158.2412917826
 30
0.0
 11
345.5220193285951
 21
158.2412917826
 31
0.0
  0
ARC
  5
D2F
330
1F
100
AcDbEntity
  8
0
100
AcDbCircle
 10
328.5261546620952
 20
155.5800255424
 30
0.0
 40
0.2064326278296313
100
AcDbArc
 50
266.7228306039981
 51
308.0003430148963
  0
ARC
  5
D30
330
1F
100
AcDbEntity
  8
0
100
AcDbCircle
 10
330.2112166130952
 20
182.9152524302
 30
0.0
 40
27.54199736766455
100
AcDbArc
 50
266.7572182727001
 51
273.2427817273
  0
ARC
  5
D31
330
1F
100
AcDbEntity
  8
0
100
AcDbCircle
 10
333.2035705122952
 20
178.7230389042
 30
0.0
 40
23.34978278413526
100
AcDbArc
 50
266.4780822205
 51
273.5219177795
  0
ARC
  5
D32
330
1F
100
AcDbEntity
  8
0
100
AcDbCircle
 10
334.5152114451952
 20
155.5691873401
 30
0.0
 40
0.1952415048190212
100
AcDbArc
 50
237.5306425459015
 51
308.9528687758002
  0
ARC
  5
D33
330
1F
100
AcDbEntity
  8
0
100
AcDbCircle
 10
332.8328618305952
 20
182.9153443742
 30
0.0
 40
27.54209003517403
100
AcDbArc
 50
267.2720252245001
 51
270.4014808388001
  0
ARC
  5
D34
330
1F
100
AcDbEntity
  8
0
100
AcDbCircle
 10
329.8405392620951
 20
178.7231902144
 30
0.0
 40
23.3499354988526
100
AcDbArc
 50
267.0372111543
 51
270.4359127930001
  0
LINE
  5
D35
330
1F
100
AcDbEntity
  8
0
100
AcDbLine
 10
380.5220193285951
 20
244.2412917826
 30
0.0
 11
356.5220193285951
 21
244.2412917826
 31
0.0
  0
LINE
  5
D36
330
1F
100
AcDbEntity
  8
0
100
AcDbLine
 10
380.5220193285951
 20
244.2412917826
 30
0.0
 11
380.5220193285951
 21
245.2412917826
 31
0.0
  0
LINE
  5
D37
330
1F
100
AcDbEntity
  8
0
100
AcDbLine
 10
380.5220193285951
 20
245.2412917826
 30
0.0
 11
356.5220193285951
 21
245.2412917826
 31
0.0
  0
LINE
  5
D38
330
1F
100
AcDbEntity
  8
0
100
AcDbLine
 10
380.5220193285951
 20
160.2412917826
 30
0.0
 11
380.5220193285951
 21
161.2412917826
 31
0.0
  0
LINE
  5
D39
330
1F
100
AcDbEntity
  8
0
100
AcDbLine
 10
380.5220193285951
 20
161.2412917826
 30
0.0
 11
356.5220193285951
 21
161.2412917826
 31
0.0
  0
LINE
  5
D3A
330
1F
100
AcDbEntity
  8
0
100
AcDbLine
 10
380.5220193285951
 20
160.2412917826
 30
0.0
 11
356.5220193285951
 21
160.2412917826
 31
0.0
  0
LINE
  5
D3B
330
1F
100
AcDbEntity
  8
0
100
AcDbLine
 10
380.7220193285952
 20
161.4412917826
 30
0.0
 11
380.7220193285952
 21
244.0412917826
 31
0.0
  0
LINE
  5
D3C
330
1F
100
AcDbEntity
  8
0
100
AcDbLine
 10
380.7220193285952
 20
161.4412917826
 30
0.0
 11
381.7220193285952
 21
161.4412917826
 31
0.0
  0
LINE
  5
D3D
330
1F
100
AcDbEntity
  8
0
100
AcDbLine
 10
381.7220193285952
 20
161.4412917826
 30
0.0
 11
381.7220193285952
 21
244.0412917826
 31
0.0
  0
LINE
  5
D3E
330
1F
100
AcDbEntity
  8
0
100
AcDbLine
 10
381.7220193285952
 20
244.0412917826
 30
0.0
 11
380.7220193285952
 21
244.0412917826
 31
0.0
  0
LINE
  5
D3F
330
1F
100
AcDbEntity
  8
0
100
AcDbLine
 10
380.7220193285952
 20
161.4412917826
 30
0.0
 11
380.5220193285951
 21
161.4412917826
 31
0.0
  0
LINE
  5
D40
330
1F
100
AcDbEntity
  8
0
100
AcDbLine
 10
380.5220193285951
 20
244.0412917826
 30
0.0
 11
380.7220193285952
 21
244.0412917826
 31
0.0
  0
LINE
  5
D41
330
1F
100
AcDbEntity
  8
0
100
AcDbLine
 10
344.8894799700952
 20
334.0412917826
 30
0.0
 11
317.4220193285952
 21
334.0412917826
 31
0.0
  0
LINE
  5
D42
330
1F
100
AcDbEntity
  8
0
100
AcDbLine
 10
344.8894799700952
 20
249.0412917826
 30
0.0
 11
317.4220193285952
 21
249.0412917826
 31
0.0
  0
LINE
  5
D43
330
1F
100
AcDbEntity
  8
0
100
AcDbLine
 10
355.0117006589952
 20
334.0412917826
 30
0.0
 11
344.8894799700952
 21
334.0412917826
 31
0.0
  0
LINE
  5
D44
330
1F
100
AcDbEntity
  8
0
100
AcDbLine
 10
355.0117006589952
 20
249.0412917826
 30
0.0
 11
344.8894799700952
 21
249.0412917826
 31
0.0
  0
LINE
  5
D45
330
1F
100
AcDbEntity
  8
0
100
AcDbLine
 10
358.0742835602952
 20
334.0412917826
 30
0.0
 11
355.0117006589952
 21
334.0412917826
 31
0.0
  0
LINE
  5
D46
330
1F
100
AcDbEntity
  8
0
100
AcDbLine
 10
358.0742835602952
 20
249.0412917826
 30
0.0
 11
355.0117006589952
 21
249.0412917826
 31
0.0
  0
LINE
  5
D47
330
1F
100
AcDbEntity
  8
0
100
AcDbLine
 10
358.5220193285951
 20
334.0412917826
 30
0.0
 11
358.5220193285951
 21
249.0412917826
 31
0.0
  0
LINE
  5
D48
330
1F
100
AcDbEntity
  8
0
100
AcDbLine
 10
358.5220193285951
 20
334.0412917826
 30
0.0
 11
358.0742835602952
 21
334.0412917826
 31
0.0
  0
LINE
  5
D49
330
1F
100
AcDbEntity
  8
0
100
AcDbLine
 10
358.5220193285951
 20
249.0412917826
 30
0.0
 11
358.0742835602952
 21
249.0412917826
 31
0.0
  0
LINE
  5
D4A
330
1F
100
AcDbEntity
  8
0
100
AcDbLine
 10
366.5220193285951
 20
314.0412917826
 30
0.0
 11
366.5220193285951
 21
321.9412917826
 31
0.0
  0
LINE
  5
D4B
330
1F
100
AcDbEntity
  8
0
100
AcDbLine
 10
366.5220193285951
 20
306.1412917826
 30
0.0
 11
366.5220193285951
 21
314.0412917826
 31
0.0
  0
LINE
  5
D4C
330
1F
100
AcDbEntity
  8
0
100
AcDbLine
 10
366.5220193285951
 20
269.0412917826
 30
0.0
 11
366.5220193285951
 21
276.9412917826
 31
0.0
  0
LINE
  5
D4D
330
1F
100
AcDbEntity
  8
0
100
AcDbLine
 10
366.5220193285951
 20
261.1412917826
 30
0.0
 11
366.5220193285951
 21
269.0412917826
 31
0.0
  0
LINE
  5
D4E
330
1F
100
AcDbEntity
  8
0
100
AcDbLine
 10
336.5854398345951
 20
245.2412917826
 30
0.0
 11
334.9809567702952
 21
245.2412917826
 31
0.0
  0
LINE
  5
D4F
330
1F
100
AcDbEntity
  8
0
100
AcDbLine
 10
336.5854398345951
 20
160.2412917826
 30
0.0
 11
334.9809567702952
 21
160.2412917826
 31
0.0
  0
LINE
  5
D50
330
1F
100
AcDbEntity
  8
0
100
AcDbLine
 10
345.5220193285951
 20
245.2412917826
 30
0.0
 11
345.5220193285951
 21
160.2412917826
 31
0.0
  0
LINE
  5
D51
330
1F
100
AcDbEntity
  8
0
100
AcDbLine
 10
336.5854398345951
 20
245.2412917826
 30
0.0
 11
345.5220193285951
 21
245.2412917826
 31
0.0
  0
LINE
  5
D52
330
1F
100
AcDbEntity
  8
0
100
AcDbLine
 10
336.5854398345951
 20
160.2412917826
 30
0.0
 11
345.5220193285951
 21
160.2412917826
 31
0.0
  0
LINE
  5
D53
330
1F
100
AcDbEntity
  8
0
100
AcDbLine
 10
372.5220193285951
 20
161.5412917826
 30
0.0
 11
356.5220193285951
 21
161.5412917826
 31
0.0
  0
LINE
  5
D54
330
1F
100
AcDbEntity
  8
0
100
AcDbLine
 10
380.5220193285951
 20
161.2412917826
 30
0.0
 11
380.5220193285951
 21
161.7412917826
 31
0.0
  0
LINE
  5
D55
330
1F
100
AcDbEntity
  8
0
100
AcDbLine
 10
372.5220193285951
 20
161.7412917826
 30
0.0
 11
380.5220193285951
 21
161.7412917826
 31
0.0
  0
LINE
  5
D56
330
1F
100
AcDbEntity
  8
0
100
AcDbLine
 10
372.5220193285951
 20
161.7412917826
 30
0.0
 11
372.5220193285951
 21
161.5412917826
 31
0.0
  0
LINE
  5
D57
330
1F
100
AcDbEntity
  8
0
100
AcDbLine
 10
372.5220193285951
 20
243.7412917826
 30
0.0
 11
372.5220193285951
 21
243.9412917826
 31
0.0
  0
LINE
  5
D58
330
1F
100
AcDbEntity
  8
0
100
AcDbLine
 10
372.5220193285951
 20
243.7412917826
 30
0.0
 11
380.5220193285951
 21
243.7412917826
 31
0.0
  0
LINE
  5
D59
330
1F
100
AcDbEntity
  8
0
100
AcDbLine
 10
380.5220193285951
 20
244.2412917826
 30
0.0
 11
380.5220193285951
 21
243.7412917826
 31
0.0
  0
LINE
  5
D5A
330
1F
100
AcDbEntity
  8
0
100
AcDbLine
 10
372.5220193285951
 20
243.9412917826
 30
0.0
 11
356.5220193285951
 21
243.9412917826
 31
0.0
  0
LINE
  5
D5B
330
1F
100
AcDbEntity
  8
0
100
AcDbLine
 10
372.5220193285951
 20
243.7412917826
 30
0.0
 11
372.5220193285951
 21
205.1749104874
 31
0.0
  0
LINE
  5
D5C
330
1F
100
AcDbEntity
  8
0
100
AcDbLine
 10
372.5220193285951
 20
200.3076730779
 30
0.0
 11
372.5220193285951
 21
161.7412917826
 31
0.0
  0
LINE
  5
D5D
330
1F
100
AcDbEntity
  8
0
100
AcDbLine
 10
380.5220193285951
 20
243.7412917826
 30
0.0
 11
380.5220193285951
 21
161.7412917826
 31
0.0
  0
ARC
  5
D5E
330
1F
100
AcDbEntity
  8
0
100
AcDbCircle
 10
370.5220193285951
 20
202.7412917826
 30
0.0
 40
3.14999999999999
100
AcDbArc
 50
309.4140983560997
 51
50.58590164390035
  0
LINE
  5
D5F
330
1F
100
AcDbEntity
  8
0
100
AcDbLine
 10
356.5220193285951
 20
243.9412917826
 30
0.0
 11
356.5220193285951
 21
245.2412917826
 31
0.0
  0
LINE
  5
D60
330
1F
100
AcDbEntity
  8
0
100
AcDbLine
 10
356.5220193285951
 20
161.5412917826
 30
0.0
 11
356.5220193285951
 21
160.2412917826
 31
0.0
  0
CIRCLE
  5
D61
330
1F
100
AcDbEntity
  8
0
100
AcDbCircle
 10
364.5220193285951
 20
170.2412917826
 30
0.0
 40
3.149999999999977
  0
CIRCLE
  5
D62
330
1F
100
AcDbEntity
  8
0
100
AcDbCircle
 10
364.5220193285951
 20
235.2412917826
 30
0.0
 40
3.150000000000034
  0
ARC
  5
D63
330
1F
100
AcDbEntity
  8
0
100
AcDbCircle
 10
370.5220193285951
 20
202.7412917826
 30
0.0
 40
3.14999999999999
100
AcDbArc
 50
50.58590164390035
 51
309.4140983560997
  0
LINE
  5
D64
330
1F
100
AcDbEntity
  8
0
100
AcDbLine
 10
345.5220193285951
 20
245.2412917826
 30
0.0
 11
356.5220193285951
 21
245.2412917826
 31
0.0
  0
LINE
  5
D65
330
1F
100
AcDbEntity
  8
0
100
AcDbLine
 10
345.5220193285951
 20
160.2412917826
 30
0.0
 11
356.5220193285951
 21
160.2412917826
 31
0.0
  0
LINE
  5
D66
330
1F
100
AcDbEntity
  8
0
100
AcDbLine
 10
328.8521007350952
 20
245.2412917826
 30
0.0
 11
334.9809567702952
 21
245.2412917826
 31
0.0
  0
LINE
  5
D67
330
1F
100
AcDbEntity
  8
0
100
AcDbLine
 10
328.8521007350952
 20
160.2412917826
 30
0.0
 11
334.9809567702952
 21
160.2412917826
 31
0.0
  0
LINE
  5
D68
330
1F
100
AcDbEntity
  8
0
100
AcDbLine
 10
317.4220193285952
 20
245.2412917826
 30
0.0
 11
328.8521007350952
 21
245.2412917826
 31
0.0
  0
LINE
  5
D69
330
1F
100
AcDbEntity
  8
0
100
AcDbLine
 10
328.8521007350952
 20
160.2412917826
 30
0.0
 11
317.4220193285952
 21
160.2412917826
 31
0.0
  0
LINE
  5
D6A
330
1F
100
AcDbEntity
  8
0
  6
Continuous
 62
     8
370
     0
100
AcDbLine
 10
372.5220193285951
 20
333.0912917826
 30
0.0
 11
372.5220193285951
 21
249.9912917826
 31
0.0
  0
LINE
  5
D6B
330
1F
100
AcDbEntity
  8
0
  6
Continuous
 62
     8
370
     0
100
AcDbLine
 10
367.0220193285951
 20
253.5412917826
 30
0.0
 11
367.3220193285952
 21
253.5412917826
 31
0.0
  0
LINE
  5
D6C
330
1F
100
AcDbEntity
  8
0
  6
Continuous
 62
     8
370
     0
100
AcDbLine
 10
367.0220193285951
 20
329.5412917826
 30
0.0
 11
367.3220193285952
 21
329.5412917826
 31
0.0
  0
LINE
  5
D6D
330
1F
100
AcDbEntity
  8
0
  6
Continuous
 62
     8
370
     0
100
AcDbLine
 10
358.5220193285951
 20
331.0412917826
 30
0.0
 11
359.0220193285951
 21
331.0412917826
 31
0.0
  0
LINE
  5
D6E
330
1F
100
AcDbEntity
  8
0
  6
Continuous
 62
     8
370
     0
100
AcDbLine
 10
358.5220193285951
 20
252.0412917826
 30
0.0
 11
359.0220193285951
 21
252.0412917826
 31
0.0
  0
LINE
  5
D6F
330
1F
100
AcDbEntity
  8
0
  6
Continuous
 62
     8
370
     0
100
AcDbLine
 10
344.8894799700952
 20
334.0412917826
 30
0.0
 11
344.8894799700952
 21
249.0412917826
 31
0.0
  0
LINE
  5
D70
330
1F
100
AcDbEntity
  8
0
  6
Continuous
 62
     8
370
     0
100
AcDbLine
 10
355.0117006589952
 20
334.0412917826
 30
0.0
 11
355.0117006589952
 21
249.0412917826
 31
0.0
  0
LINE
  5
D71
330
1F
100
AcDbEntity
  8
0
  6
Continuous
 62
     8
370
     0
100
AcDbLine
 10
358.0742835602952
 20
334.0412917826
 30
0.0
 11
358.0742835602952
 21
249.0412917826
 31
0.0
  0
LINE
  5
D72
330
1F
100
AcDbEntity
  8
0
  6
Continuous
 62
     8
370
     0
100
AcDbLine
 10
334.9809567702952
 20
245.2412917826
 30
0.0
 11
334.9809567702952
 21
160.2412917826
 31
0.0
  0
LINE
  5
D73
330
1F
100
AcDbEntity
  8
0
  6
Continuous
 62
     8
370
     0
100
AcDbLine
 10
336.5854398345951
 20
245.2412917826
 30
0.0
 11
336.5854398345951
 21
160.2412917826
 31
0.0
  0
LINE
  5
D74
330
1F
100
AcDbEntity
  8
0
  6
Continuous
 62
     8
370
     0
100
AcDbLine
 10
328.8521007350952
 20
245.2412917826
 30
0.0
 11
328.8521007350952
 21
160.2412917826
 31
0.0
  0
LINE
  5
D75
330
1F
100
AcDbEntity
  8
0
  6
CENTER
 62
     1
100
AcDbLine
 10
268.8074465310952
 20
314.0412917826
 30
0.0
 11
238.8074465310952
 21
314.0412917826
 31
0.0
  0
LINE
  5
D76
330
1F
100
AcDbEntity
  8
0
  6
CENTER
 62
     1
100
AcDbLine
 10
253.8074465310952
 20
299.0412917826
 30
0.0
 11
253.8074465310952
 21
329.0412917826
 31
0.0
  0
LINE
  5
D77
330
1F
100
AcDbEntity
  8
0
  6
CENTER
 62
     1
100
AcDbLine
 10
268.8074465310952
 20
269.0412917826
 30
0.0
 11
238.8074465310952
 21
269.0412917826
 31
0.0
  0
LINE
  5
D78
330
1F
100
AcDbEntity
  8
0
  6
CENTER
 62
     1
100
AcDbLine
 10
253.8074465310952
 20
254.0412917826
 30
0.0
 11
253.8074465310952
 21
284.0412917826
 31
0.0
  0
LINE
  5
D79
330
1F
100
AcDbEntity
  8
0
  6
CENTER
 62
     1
100
AcDbLine
 10
121.2324601928952
 20
235.2412917826
 30
0.0
 11
106.8324601928952
 21
235.2412917826
 31
0.0
  0
LINE
  5
D7A
330
1F
100
AcDbEntity
  8
0
  6
CENTER
 62
     1
100
AcDbLine
 10
114.0324601928952
 20
228.0412917826
 30
0.0
 11
114.0324601928952
 21
242.4412917826
 31
0.0
  0
LINE
  5
D7B
330
1F
100
AcDbEntity
  8
0
  6
CENTER
 62
     1
100
AcDbLine
 10
115.2324601928952
 20
202.7412917826
 30
0.0
 11
100.8324601928952
 21
202.7412917826
 31
0.0
  0
LINE
  5
D7C
330
1F
100
AcDbEntity
  8
0
  6
CENTER
 62
     1
100
AcDbLine
 10
108.0324601928952
 20
195.5412917826
 30
0.0
 11
108.0324601928952
 21
209.9412917826
 31
0.0
  0
LINE
  5
D7D
330
1F
100
AcDbEntity
  8
0
  6
CENTER
 62
     1
100
AcDbLine
 10
121.2324601928952
 20
170.2412917826
 30
0.0
 11
106.8324601928952
 21
170.2412917826
 31
0.0
  0
LINE
  5
D7E
330
1F
100
AcDbEntity
  8
0
  6
CENTER
 62
     1
100
AcDbLine
 10
114.0324601928952
 20
163.0412917826
 30
0.0
 11
114.0324601928952
 21
177.4412917826
 31
0.0
  0
LINE
  5
D7F
330
1F
100
AcDbEntity
  8
0
  6
CENTER
 62
     1
100
AcDbLine
 10
364.5220193285951
 20
228.0412917826
 30
0.0
 11
364.5220193285951
 21
242.4412917826
 31
0.0
  0
LINE
  5
D80
330
1F
100
AcDbEntity
  8
0
  6
CENTER
 62
     1
100
AcDbLine
 10
371.7220193285952
 20
235.2412917826
 30
0.0
 11
357.3220193285951
 21
235.2412917826
 31
0.0
  0
LINE
  5
D81
330
1F
100
AcDbEntity
  8
0
  6
CENTER
 62
     1
100
AcDbLine
 10
370.5220193285951
 20
195.5412917826
 30
0.0
 11
370.5220193285951
 21
209.9412917826
 31
0.0
  0
LINE
  5
D82
330
1F
100
AcDbEntity
  8
0
  6
CENTER
 62
     1
100
AcDbLine
 10
377.7220193285952
 20
202.7412917826
 30
0.0
 11
363.3220193285951
 21
202.7412917826
 31
0.0
  0
LINE
  5
D83
330
1F
100
AcDbEntity
  8
0
  6
CENTER
 62
     1
100
AcDbLine
 10
364.5220193285951
 20
163.0412917826
 30
0.0
 11
364.5220193285951
 21
177.4412917826
 31
0.0
  0
LINE
  5
D84
330
1F
100
AcDbEntity
  8
0
  6
CENTER
 62
     1
100
AcDbLine
 10
371.7220193285952
 20
170.2412917826
 30
0.0
 11
357.3220193285951
 21
170.2412917826
 31
0.0
  0
LINE
  5
D86
330
1F
100
AcDbEntity
  8
0
  6
CENTER
 62
     1
100
AcDbLine
 10
243.8074465310952
 20
383.4182247749446
 30
0.0
 11
213.8074465310952
 21
383.4182247749446
 31
0.0
  0
LINE
  5
D87
330
1F
100
AcDbEntity
  8
0
  6
CENTER
 62
     1
100
AcDbLine
 10
228.8074465310952
 20
368.4182247749446
 30
0.0
 11
228.8074465310952
 21
398.4182247749446
 31
0.0
  0
LINE
  5
D88
330
1F
100
AcDbEntity
  8
0
  6
CENTER
 62
     1
100
AcDbLine
 10
243.8074465310952
 20
105.0823522977
 30
0.0
 11
213.8074465310952
 21
105.0823522977
 31
0.0
  0
LINE
  5
D89
330
1F
100
AcDbEntity
  8
0
  6
CENTER
 62
     1
100
AcDbLine
 10
228.8074465310952
 20
90.0823522977
 30
0.0
 11
228.8074465310952
 21
120.0823522977
 31
0.0
  0
LINE
  5
D8A
330
1F
100
AcDbEntity
  8
ASSI
100
AcDbLine
 10
331.5220193286751
 20
147.0861554176634
 30
0.0
 11
331.5220193286751
 21
344.9197309534634
 31
0.0
  0
LINE
  5
D8B
330
1F
100
AcDbEntity
  8
ASSI
100
AcDbLine
 10
147.0324601928952
 20
147.0556196717
 30
0.0
 11
147.0324601928952
 21
344.8891952075
 31
0.0
  0
TEXT
  5
D8C
330
1F
100
AcDbEntity
  8
0
  6
Continuous
 62
     7
370
     0
100
AcDbText
 10
100.1073387829068
 20
379.2613715364614
 30
0.0
 40
10.0
  1
830E10S
100
AcDbText
  0
LINE
  5
D8D
330
1F
100
AcDbEntity
  8
0
100
AcDbLine
 10
-32.96021008382229
 20
437.101725325084
 30
0.0
 11
-32.96021008382229
 21
-140.351783820446
 31
0.0
  0
ENDSEC
  0
SECTION
  2
OBJECTS
  0
DICTIONARY
  5
C
330
0
100
AcDbDictionary
281
     1
  3
ACAD_DETAILVIEWSTYLE
350
955
  3
ACAD_GROUP
350
D
  3
ACAD_IMAGE_VARS
350
423
  3
ACAD_LAYOUT
350
1A
  3
ACAD_MLINESTYLE
350
17
  3
ACAD_PLOTSETTINGS
350
19
  3
ACAD_PLOTSTYLENAME
350
E
  3
ACAD_SCALELIST
350
47
  3
ACAD_SECTIONVIEWSTYLE
350
956
  3
AcDbVariableDictionary
350
951
  3
APPDATA
350
421
  3
DWGPROPS
350
D8F
  0
DICTIONARY
  5
955
102
{ACAD_REACTORS
330
C
102
}
330
C
100
AcDbDictionary
281
     1
  0
DICTIONARY
  5
D
102
{ACAD_REACTORS
330
C
102
}
330
C
100
AcDbDictionary
281
     1
  0
RASTERVARIABLES
  5
423
102
{ACAD_REACTORS
330
C
102
}
330
C
100
AcDbRasterVariables
 90
        0
 70
     1
 71
     1
 72
     1
  0
DICTIONARY
  5
1A
102
{ACAD_REACTORS
330
C
102
}
330
C
100
AcDbDictionary
281
     1
  3
Layout1
350
1E
  3
Layout2
350
26
  3
Model
350
22
  0
DICTIONARY
  5
17
102
{ACAD_REACTORS
330
C
102
}
330
C
100
AcDbDictionary
281
     1
  3
Standard
350
18
  0
DICTIONARY
  5
19
102
{ACAD_REACTORS
330
C
102
}
330
C
100
AcDbDictionary
281
     1
  0
ACDBDICTIONARYWDFLT
  5
E
102
{ACAD_REACTORS
330
C
102
}
330
C
100
AcDbDictionary
281
     1
  3
Normal
350
F
100
AcDbDictionaryWithDefault
340
F
  0
DICTIONARY
  5
47
102
{ACAD_REACTORS
330
C
102
}
330
C
100
AcDbDictionary
281
     1
  3
A0
350
48
  3
A1
350
49
  3
A2
350
4A
  3
A3
350
4B
  3
A4
350
4C
  3
A5
350
4D
  3
A6
350
4E
  3
A7
350
4F
  3
A8
350
50
  3
A9
350
51
  3
B0
350
52
  3
B1
350
53
  3
B2
350
54
  3
B3
350
55
  3
B4
350
56
  3
B5
350
57
  3
B6
350
58
  3
B7
350
59
  3
B8
350
5A
  3
B9
350
5B
  3
C0
350
5C
  3
C1
350
5D
  3
C2
350
5E
  3
C3
350
5F
  3
C4
350
60
  3
C5
350
61
  3
C6
350
62
  3
C7
350
63
  3
C8
350
64
  3
C9
350
65
  3
D0
350
66
  3
D1
350
67
  3
D2
350
68
  0
DICTIONARY
  5
956
102
{ACAD_REACTORS
330
C
102
}
330
C
100
AcDbDictionary
281
     1
  0
DICTIONARY
  5
951
102
{ACAD_REACTORS
330
C
102
}
330
C
100
AcDbDictionary
281
     1
  0
DICTIONARY
  5
421
102
{ACAD_REACTORS
330
C
102
}
330
C
100
AcDbDictionary
281
     1
  0
XRECORD
  5
D8F
102
{ACAD_REACTORS
330
C
102
}
330
C
100
AcDbXrecord
280
     1
  1
DWGPROPS COOKIE
  2

  3

  4

  6

  7

  8
raffaele
  9

300
=
301
=
302
=
303
=
304
=
305
=
306
=
307
=
308
=
309
=
 40
0.0
 41
2457142.422579166
 42
2457283.411794051
  1

 90
        0
  0
LAYOUT
  5
1E
102
{ACAD_REACTORS
330
1A
102
}
330
1A
100
AcDbPlotSettings
  1

  2
none_device
  4

  6

 40
0.0
 41
0.0
 42
0.0
 43
0.0
 44
0.0
 45
0.0
 46
0.0
 47
0.0
 48
0.0
 49
0.0
140
0.0
141
0.0
142
1.0
143
1.0
 70
   688
 72
     1
 73
     0
 74
     5
  7

 75
    16
147
1.0
148
0.0
149
0.0
100
AcDbLayout
  1
Layout1
 70
     1
 71
     1
 10
0.0
 20
0.0
 11
420.0
 21
297.0
 12
0.0
 22
0.0
 32
0.0
 14
1.000000000000000E+20
 24
1.000000000000000E+20
 34
1.000000000000000E+20
 15
-1.000000000000000E+20
 25
-1.000000000000000E+20
 35
-1.000000000000000E+20
146
0.0
 13
0.0
 23
0.0
 33
0.0
 16
1.0
 26
0.0
 36
0.0
 17
0.0
 27
1.0
 37
0.0
 76
     0
330
1B
  0
LAYOUT
  5
26
102
{ACAD_REACTORS
330
1A
102
}
330
1A
100
AcDbPlotSettings
  1

  2
none_device
  4

  6

 40
0.0
 41
0.0
 42
0.0
 43
0.0
 44
0.0
 45
0.0
 46
0.0
 47
0.0
 48
0.0
 49
0.0
140
0.0
141
0.0
142
1.0
143
1.0
 70
   688
 72
     1
 73
     0
 74
     5
  7

 75
    16
147
1.0
148
0.0
149
0.0
100
AcDbLayout
  1
Layout2
 70
     1
 71
     2
 10
0.0
 20
0.0
 11
0.0
 21
0.0
 12
0.0
 22
0.0
 32
0.0
 14
0.0
 24
0.0
 34
0.0
 15
0.0
 25
0.0
 35
0.0
146
0.0
 13
0.0
 23
0.0
 33
0.0
 16
1.0
 26
0.0
 36
0.0
 17
0.0
 27
1.0
 37
0.0
 76
     0
330
23
  0
LAYOUT
  5
22
102
{ACAD_REACTORS
330
1A
102
}
330
1A
100
AcDbPlotSettings
  1

  2
none_device
  4
Letter_(8.50_x_11.00_Inches)
  6

 40
6.35
 41
6.35
 42
6.35000508
 43
6.35000508
 44
215.9
 45
279.4
 46
0.0
 47
0.0
 48
0.0
 49
0.0
140
0.0
141
0.0
142
1.0
143
1.0
 70
  1712
 72
     1
 73
     0
 74
     0
  7

 75
     0
147
1.0
148
0.0
149
0.0
100
AcDbLayout
  1
Model
 70
     1
 71
     0
 10
0.0
 20
0.0
 11
210.0
 21
297.0
 12
0.0
 22
0.0
 32
0.0
 14
-436.8936502618
 24
-140.351783820446
 34
0.0
 15
381.7220193285952
 25
437.101725325084
 35
0.0
146
0.0
 13
0.0
 23
0.0
 33
0.0
 16
1.0
 26
0.0
 36
0.0
 17
0.0
 27
1.0
 37
0.0
 76
     0
330
1F
331
29
  0
MLINESTYLE
  5
18
102
{ACAD_REACTORS
330
17
102
}
330
17
100
AcDbMlineStyle
  2
Standard
 70
     0
  3

 62
   256
 51
90.0
 52
90.0
 71
     2
 49
0.5
 62
   256
  6
BYLAYER
 49
-0.5
 62
   256
  6
BYLAYER
  0
ACDBPLACEHOLDER
  5
F
102
{ACAD_REACTORS
330
E
102
}
330
E
  0
SCALE
  5
48
102
{ACAD_REACTORS
330
47
102
}
330
47
100
AcDbScale
 70
     0
300
1:1
140
1.0
141
1.0
290
     1
  0
SCALE
  5
49
102
{ACAD_REACTORS
330
47
102
}
330
47
100
AcDbScale
 70
     0
300
1:2
140
1.0
141
2.0
290
     0
  0
SCALE
  5
4A
102
{ACAD_REACTORS
330
47
102
}
330
47
100
AcDbScale
 70
     0
300
1:4
140
1.0
141
4.0
290
     0
  0
SCALE
  5
4B
102
{ACAD_REACTORS
330
47
102
}
330
47
100
AcDbScale
 70
     0
300
1:5
140
1.0
141
5.0
290
     0
  0
SCALE
  5
4C
102
{ACAD_REACTORS
330
47
102
}
330
47
100
AcDbScale
 70
     0
300
1:8
140
1.0
141
8.0
290
     0
  0
SCALE
  5
4D
102
{ACAD_REACTORS
330
47
102
}
330
47
100
AcDbScale
 70
     0
300
1:10
140
1.0
141
10.0
290
     0
  0
SCALE
  5
4E
102
{ACAD_REACTORS
330
47
102
}
330
47
100
AcDbScale
 70
     0
300
1:16
140
1.0
141
16.0
290
     0
  0
SCALE
  5
4F
102
{ACAD_REACTORS
330
47
102
}
330
47
100
AcDbScale
 70
     0
300
1:20
140
1.0
141
20.0
290
     0
  0
SCALE
  5
50
102
{ACAD_REACTORS
330
47
102
}
330
47
100
AcDbScale
 70
     0
300
1:30
140
1.0
141
30.0
290
     0
  0
SCALE
  5
51
102
{ACAD_REACTORS
330
47
102
}
330
47
100
AcDbScale
 70
     0
300
1:40
140
1.0
141
40.0
290
     0
  0
SCALE
  5
52
102
{ACAD_REACTORS
330
47
102
}
330
47
100
AcDbScale
 70
     0
300
1:50
140
1.0
141
50.0
290
     0
  0
SCALE
  5
53
102
{ACAD_REACTORS
330
47
102
}
330
47
100
AcDbScale
 70
     0
300
1:100
140
1.0
141
100.0
290
     0
  0
SCALE
  5
54
102
{ACAD_REACTORS
330
47
102
}
330
47
100
AcDbScale
 70
     0
300
2:1
140
2.0
141
1.0
290
     0
  0
SCALE
  5
55
102
{ACAD_REACTORS
330
47
102
}
330
47
100
AcDbScale
 70
     0
300
4:1
140
4.0
141
1.0
290
     0
  0
SCALE
  5
56
102
{ACAD_REACTORS
330
47
102
}
330
47
100
AcDbScale
 70
     0
300
8:1
140
8.0
141
1.0
290
     0
  0
SCALE
  5
57
102
{ACAD_REACTORS
330
47
102
}
330
47
100
AcDbScale
 70
     0
300
10:1
140
10.0
141
1.0
290
     0
  0
SCALE
  5
58
102
{ACAD_REACTORS
330
47
102
}
330
47
100
AcDbScale
 70
     0
300
100:1
140
100.0
141
1.0
290
     0
  0
SCALE
  5
59
102
{ACAD_REACTORS
330
47
102
}
330
47
100
AcDbScale
 70
     0
300
1/128" = 1'-0"
140
0.0078125
141
12.0
290
     0
  0
SCALE
  5
5A
102
{ACAD_REACTORS
330
47
102
}
330
47
100
AcDbScale
 70
     0
300
1/64" = 1'-0"
140
0.015625
141
12.0
290
     0
  0
SCALE
  5
5B
102
{ACAD_REACTORS
330
47
102
}
330
47
100
AcDbScale
 70
     0
300
1/32" = 1'-0"
140
0.03125
141
12.0
290
     0
  0
SCALE
  5
5C
102
{ACAD_REACTORS
330
47
102
}
330
47
100
AcDbScale
 70
     0
300
1/16" = 1'-0"
140
0.0625
141
12.0
290
     0
  0
SCALE
  5
5D
102
{ACAD_REACTORS
330
47
102
}
330
47
100
AcDbScale
 70
     0
300
3/32" = 1'-0"
140
0.09375
141
12.0
290
     0
  0
SCALE
  5
5E
102
{ACAD_REACTORS
330
47
102
}
330
47
100
AcDbScale
 70
     0
300
1/8" = 1'-0"
140
0.125
141
12.0
290
     0
  0
SCALE
  5
5F
102
{ACAD_REACTORS
330
47
102
}
330
47
100
AcDbScale
 70
     0
300
3/16" = 1'-0"
140
0.1875
141
12.0
290
     0
  0
SCALE
  5
60
102
{ACAD_REACTORS
330
47
102
}
330
47
100
AcDbScale
 70
     0
300
1/4" = 1'-0"
140
0.25
141
12.0
290
     0
  0
SCALE
  5
61
102
{ACAD_REACTORS
330
47
102
}
330
47
100
AcDbScale
 70
     0
300
3/8" = 1'-0"
140
0.375
141
12.0
290
     0
  0
SCALE
  5
62
102
{ACAD_REACTORS
330
47
102
}
330
47
100
AcDbScale
 70
     0
300
1/2" = 1'-0"
140
0.5
141
12.0
290
     0
  0
SCALE
  5
63
102
{ACAD_REACTORS
330
47
102
}
330
47
100
AcDbScale
 70
     0
300
3/4" = 1'-0"
140
0.75
141
12.0
290
     0
  0
SCALE
  5
64
102
{ACAD_REACTORS
330
47
102
}
330
47
100
AcDbScale
 70
     0
300
1" = 1'-0"
140
1.0
141
12.0
290
     0
  0
SCALE
  5
65
102
{ACAD_REACTORS
330
47
102
}
330
47
100
AcDbScale
 70
     0
300
1-1/2" = 1'-0"
140
1.5
141
12.0
290
     0
  0
SCALE
  5
66
102
{ACAD_REACTORS
330
47
102
}
330
47
100
AcDbScale
 70
     0
300
3" = 1'-0"
140
3.0
141
12.0
290
     0
  0
SCALE
  5
67
102
{ACAD_REACTORS
330
47
102
}
330
47
100
AcDbScale
 70
     0
300
6" = 1'-0"
140
6.0
141
12.0
290
     0
  0
SCALE
  5
68
102
{ACAD_REACTORS
330
47
102
}
330
47
100
AcDbScale
 70
     0
300
1'-0" = 1'-0"
140
12.0
141
12.0
290
     0
  0
ENDSEC
  0
EOF
